>
 >
Pulling The Strings

Pulling The Strings Guitar Tabs

Satanic Surfers - Pulling The Strings chords, tabs, tablatures, lyrics

Guitar lessons | Add/correct | Request | Top 50 tabs Artists:  A B C D E F G H I J K L M N O P Q R S T U V W X Y Z 0-9

Pulling The Strings Guitar Tabs – Satanic Surfers

CD, Sheet music, Poster

Do you like Pulling The Strings? Share with your friends now
Tabs
------------------------------------------------------------------------------- 
------------------------------------------------------------------------------- 


Standard tuning. No rhythm tabbed, but it's an easy song. If you get lost, just 
play aroung with some kinda D-A-G-B combination. Great song, but easy. 
(the last version I posted fucked up...) 

INTRO 1: 
e|---------------------------------------------------------------------------| 
B|------------------3--------------------------------------------------------| 
G|------4-------------4------------------------------------------------------| 
D|----4---4----------------X2------------------------------------------------| 
A|-0/2-------2-0-------------------------------------------------------------| 
E|---------------3-----------------------------------------------------------| 

INTRO 2: 
B G D 
e|---------------------------------------------------------------------------| 
B|---------------------------------------------------------------------------| 
G|---------------------------------------------------------------------------| 
D|-4----4---4-------7-------X2-----------------------------------------------| 
A|-2222222222225----555555---------------------------------------------------| 
E|-------------33333---------------------------------------------------------| 

VERSE: x2 
B G D A B D G D 
e|---------------------------------------------------------------------------| 
B|---------------------------------------------------------------------------| 
G|---4--------------------------7-------4-------7---------------7------------| 
D|---4------------------5-------7---7---4-------7-------5-------7------------| 
A|---2-2-2-2-2-2-2-2-2--5-------5-5-7---2-2-2-2-5-5-5-5-5-------5-5-5-5------| 
E|----------------------3-3-3-3-----5-5-----------------3-3-3-3--------------| 
Yet another big company.... 

CHORUS: 
A B D G B A G D B A D A B G D A B D A G B 
e|---------------------------------------------------------------------------| 
B|---------------------------------------------------------------------------| 
G|-------4-4-7------------7-7-------7---------(-7------7---------)-----------| 
D|-7-7-7-4-4-7-5-5--9-7-5-7-7-9--7--7-7-9-5-5-(-7-7-9--7-7-9-5-5-)repeat-that| 
A|-7-7-7-2-2-5-5-5--9-7-5-5-5-9--7--5-7-9-5-5-(-5-7-9--5-7-9-5-5-)<<<
E|-5-5-5-------3-3--7-5-3-----7--5----5-7-3-3-(---5-7----5-7-3-3-)-----------| 

BREAK: 
D A D G 
e|---------------------------------------------------------------------------| 
B|-7-----5-----7-----3-------------------------------------------------------| 
G|-7-----6-----7-----4-------------------------------------------------------| 
D|-7-----7-----7-----5-------------------------------------------------------| 
A|-5-----7-----5-----5-------------------------------------------------------| 
E|-------5-----------3-------------------------------------------------------| 

RIFF 1: 
D A B G D A B 
e|---------------------------------------------------------------------------| 
B|---------------------------------------------------------------------------| 
G|-7-----------7-------------------------------------------------------------| 
D|-7-7-9-5-5---7-7-9~--------------------------------------------------------| 
A|-5-7-9-5-5---5-7-9~--------------------------------------------------------| 
E|---5-7-3-3-----5-7~--------------------------------------------------------| 

RIFF 2: 
D A B G 
e|---------------------------------------------------------------------------| 
B|---------------------------------------------------------------------------| 
G|-7-------------------------------------------------------------------------| 
D|-7-7---9-5--(repeat)-------------------------------------------------------| 
A|-5-7---9-5-----------------------------------------------------------------| 
E|---5---7-3-----------------------------------------------------------------| 

ENDING: 
B 
e|---------------------------------------------------------------------------| 
B|---------------------------------------------------------------------------| 
G|-4-4-4--4~-----------------------------------------------------------------| 
D|-4-4-4--4~-----------------------------------------------------------------| 
A|-2-2-2--2~-----------------------------------------------------------------| 
E|---------------------------------------------------------------------------| 

===============================================================================





Comments


Popular Satanic Surfers tabs & chords
Before It's Too Late Bass Tabs
Sunshiny Day 1 Bass Tabs
Don't Tell Us What We Should Do With Our Bodies, You Filthy Bastards Chords
Egocentric Chords
...And The Cheese Fell Down Tabs
4 A.M Tabs
Better Off Today Tabs
Good Morning Tabs
End Of The World Ukulele
Lost Ukulele


Song lyrics



↑ Back to top | Tablatures and chords are parodies/interpretations of the original songs. You may use it for private study, scholarship, research or language learning purposes only
© 2014 AZChords.com Contact us | Privacy policy | DMCA | Add/correct tabs | Request tabs | Top 50 tabs