» » »

Satanic Surfers, Lost Bass tabs (ver.1)

Artists:  A B C D E F G H I J K L M N O P Q R S T U V W X Y Z # 

Lost Bass tabs (ver.1)

Satanic Surfers Tabs
 Rating:
4/5 (4 votes)
Lost lessons Tabs too difficult? Try these video lessons and learn fast
                intro # h=hammer-on
G------------------------------------|---------------------19----->
D---------1917--17----h-h--17---h-h---------1917--17---1719--1718\>
A--1212-12----19---19171819--191718191212-12----19---19----------->
E----------------------------------------------------------------->
intro
------------------------------------|---------------1917---------|
---------1917--17----h-h--17---h-h---------1917--17-----1917-----|
--1212-12----19---19171819--191718191212-12----19-----------1917\|
:
# intro2 # h=hammer-on
G--|-----------------7-9--914-12---------------------------|>
D--|----------5-7h8h9------------14------------------------|>
A--|7-7--7-5h7-------------------------12-1212\---12-1212\-|>
E--|----------------------|2X|-----------------------------|>
intro2
------------------------------|
------------------------7-5---|
---3-3--3-3-3--3-5----------7-|
------------------------------|
:
# verse # X2 p=pull-off                                    >
G---------------------------------------------------------->
D------------------------7-5------------------------------->
A---0-0--0-0-0--0-0-0--0-----7-3-3--3-3-3--3-5-5--5-5-5--5->
E---------------------------------------------------------->
verse                                                                    >
------------5p3-5p3------------5p3-5p3----|-----------END-1st-time------|>
---3--3--3---------5p3-3--3--3---------5p3|-----------------------------|>
------------------------------------------|--------------3h5-7/10-------|>
------------------------------------------|3-3--3-3-3--3-----------5--3-|>
verse
---END-2nd-time--------------|
-----------------0-3-2-0-----|
-------------------------3-2-|
---3-3--3-3-3--3-------------|
:
# pre-chorus # *=play 5-6X  %=pause  (You pretend...)
G-------------------%---%---%---------------------------|
D-------------------%---%---%-*-------------0-3-2-0-----|
A----*-------*------%---%---%0-------*--------------3-2-|
E---1-------3-------%0-0%1-1%-------3-------------------|
:
# chorus # X2 *=play 6X
G-----------------------------------------------------------------|
D----*-------*---------------------------------------*-------*----|
A---3-------0--------*-------*-------*-------*------5-------5-----|
E-------------------3-------3-------1-------1---------------------|
:
# end-chorus # *=play 6X #=play 3X  |change picking               >
G-----------------------------------|----------------------------->
D----*-------*-------------------------------*---------------*---->
A---0-------0--------*-------*-------*------3--------*------0----->
E-------------------3-------3-------1---------------0------------->
end-chorus
---------------------|
---------------------|
----*-------#--2-3-2-|
---1-------3---------|
:
# bridge # *=play 9X                                               >
G------------------------------------------------------------------>
D----*-------------------------------*----------------------------->
A---0----------------*--------------3----------------*------------->
E-------------------1-------------------------------3-------------->
bridge
-------3333-1--------------------------5555-3---------------------|
-------------3-1-----------------------------5-3------------------|
---1-1-----------3--*--------------3-3-----------5--*-------------|
-------------------1-------------------------------3--------------|
:
# bridge2 # *=play 7-8X #=play 3X
G--|-----------|3X|------------1210-9|-----------------------12-10--9-|
D--|-----------------*-------#-------|-----------------*--------------|
A--|-*-------*------8------10--------|-*-------*------8---------------|
E--|8-------5------------------------|8-------5-----------------------|
:
Then play verseX2 (with same endings), pre-chorus and chorusX2.
:
# outro # *=play 6X
G-----------------------------------all-are-single-notes--|
D----*-------*--------------------------------------------|
A---0-------0--------*-------*--------------------3-------|
E-------------------3-------3-------111-----111-11-35-----|
            
Submit corrections

comments powered by Disqus
↑ Back to top | Satanic Surfers Bass for Lost. Lyrics for acoustic guitar and electric guitar. Tablatures and chords are parodies/interpretations of the original songs. You may use it for private study, scholarship, research or language learning purposes only