>
 >
Instituionalized Murder

Instituionalized Murder Guitar Tabs

Satanic Surfers - Instituionalized Murder chords, tabs, tablatures, lyrics

Guitar lessons | Add/correct | Request | Top 50 tabs Artists:  A B C D E F G H I J K L M N O P Q R S T U V W X Y Z 0-9

Instituionalized Murder Guitar Tabs – Satanic Surfers

CD, Sheet music, Poster

Do you like Instituionalized Murder? Share with your friends now
Tabs
# intro #A *=play 6X m=palm-muted
E-----------------------------------|
B--------------------*--------------|
G---------4-55-5--4-5---------------|\
D---2-----4-55-5--4-5-------55-555-5| # verse #A&B X2 *=play 6X
A---2-----2-33-3--2-3-------33-333-3| E-----------------------------------|
E---0---3-------3-----------mm-mmm-m| B--------------------*-------*------|
# intro #B m=palm-muted               G----*------5-----4-5-------5-------|
E-----------------------------------| D---2-------5--5--4-5-------5-------|
B-----------------------------------| A---2-------3--5--2-3-------3-------|
G-----------------------------------| E---0----------3--------------------|
D---2-----------------------55-555-5|/
A---2-----------------------33-333-3|
E---0-----------------------mm-mmm-m|
:
# chorus #A *=play 6X
E---------------------------3--2--------------------|
B-----------3---------------------3--*-------*------|
G-------0------------*--------------5-------5-------|
D---4---------------5---------------5-------5-------|
A---5---------------5---------------3-------3-------|
E-------------------3-------------------------------|
# chorus #B *=play 6X                                 >Then play A&BverseA&BX2
E---------------------------------------------------|  and AchorusA or 
B-----------3------------------------*-------*------|  BchorusB.
G-------0------------*------7--7----5-------5-------|
D---4---------------5-------5--4--4-5-------5-------|
A---5---------------5-------------5-3-------3-------|
E-------------------3-------------------------------|
:                %=pause
# into-bridge #A *=play 5-6X       # bridge #A *=play 5-6X
E-------------------%-------7-88-87|------------------------7-88-87-|
B---------------*---%-------8-88-88|------------*-----------8-88-88-|
G-----------9-12----%--------------|-*------9-12-----*--------------|
D---2-2-------------%4-4-----------|2---------------4---------------|
A---2-2-----7-10----%5-5-----------|2-------7-10----5---------------|
E---0-0-------------%--------------|0-------------------------------|
# into-bridge #B *=play 5-6X       # bridge #B *=play 5-6X
E-------------------%--------------|--------------------------------|
B-------------------%--------------|------------*-------------------|
G-------------------%--------*-----|-*------9-12-----*-------*------|
D---2-2-------------%4-4----5------|2---------------4-------5-------|
A---2-2-------------%5-5----5------|2-------7-10----5-------5-------|
E---0-0-------------%-------3------|0-----------------------3-------|
:
# bridge2 #A&B *=play 5-6X #=play 2-4X
E--|------------|3X|-*-------------|--------------------------------|
B--|-*------*------12-------*------|-*-------#--#-------------------|
G--|5------5-------12------7-------|5------12--7--------------------|
D--|5------5-------12------7-------|5------12--7----2-2-------------|
A--|3------3-------10------5-------|3------10--5----2-2-------------|
E--|-------------------------------|----------------0-0-------------|
:              
# bridge3 #A&B +=play 12X with palm-muting *=play 5-6X
E-------------------------------------------------------------------|
B------------+-------+-------+-----------*---*---*-------*---*------|
G----+------7-------4-------5--------*--7---4---5----*--7---4---5---|
D---5-------7-------4-------5-------5---7---4---5---5---7---4---5---|
A---7-------5-------2-------3-------7---5---2---3---7---5---2---3---|
E-------------------------------------------------------------------|
Then play A&BverseA&BX2, AchorusA or BchorusB, AbridgeA or BbridgeB and last
part of A&Bbridge2A&B.





Comments


Popular Satanic Surfers tabs & chords
Dickweed Bass Tabs
Good Morning Bass Tabs
Hard To Be Yourself 1 Bass Tabs
Sunshiny Day Bass Tabs
Good Morning Chords
Lost Chords
...And The Cheese Fell Down Tabs
Evil Tabs
Seed Of Fear And Anger 1 Tabs
I Scream Ukulele


Song lyrics



↑ Back to top | Tablatures and chords are parodies/interpretations of the original songs. You may use it for private study, scholarship, research or language learning purposes only
© 2014 AZChords.com Contact us | Privacy policy | DMCA | Add/correct tabs | Request tabs | Top 50 tabs