>
 >
Hero Of Our Time

Hero Of Our Time Bass Tabs

Satanic Surfers - Hero Of Our Time chords, tabs, tablatures, lyrics

Guitar lessons | Add/correct | Request | Top 50 tabs Artists:  A B C D E F G H I J K L M N O P Q R S T U V W X Y Z 0-9

Hero Of Our Time Bass Tabs – Satanic Surfers

CD, Sheet music, Poster

Do you like Hero Of Our Time? Share with your friends now
Bass TabsTabs
# intro # *=play 6X         |   #=play 3-4X
G------------#---124---------#---124--------------------------------|
D----#---40-2--------#---40-2--------#-------*-------#--------------|
A---0------2--------0------2--------5----4547-------5----4547-------|
E-------------------------------------------------------------------|
:
# acoustic #            %=pause
G-------------------------------------------------------------%%%%%%|
D-----------------------------------------------------------2-%%%%%%|
A---0-------4-------2---------------0-------4-------2---------%%%%%%|
E---------------------------0---------------------------------%%%%%%|
:
# acoustic2 #                    /  !all are single notes!          >
G--------------/-------/-------1-24------------/--4----/--2---12/42->
D-------/-4----46------24---2----------/--4----46------24---2------->
A---0--57---4-----4-2-----2---------0--57---4-------2--------------->
E------------------------------------------------------------------->
acoustic2                       /                               /
--------------/-------/-------1-24------------/--4----/--2----1-24-|
-------/-4----46------24---2----------/--4----46------24---2-------|
---0--57---4-----4-2-----2---------0--57---4-------2---------------|
:
# acoustic-end # %=pause
G--|-----------|2X|----------------|-----------------------------%%%|
D--|--------------------------/7---|---------------------------2-%%%|
A--|0002-4----------0002-4-5-------|0004-442-22-----0004-442-22--%%%|
E--|-------0-----------------------|-----------0-000-------------%%%|
:
# into-verse # *=play 6X #=play 3-4X                                >
G------------#---124---------#---124-------------------------------->
D----#---40-2--------#---40-2--------#-------*-------#------/-7----->
A---0------2--------0------2--------5----4547-------5----45479--97-->
E-----------------------------------------------------------------97>
into-verse
-----------------------------------|
----*-------*-------*-------*------|
--/9-------9-------7-------7-------|
-----------------------------------|
:
# verse # X2 *=play 6X #=play 3X                                      
G-------------------------------------------------------------------|
D----#-----------#---*------/-7------*-------*-------*-------*------|
A---0---7-5--#--4---5-------79--97--9-------9-------7-------7-------|
E-----------2---------------------97--------------------------------|
:
# chorus # X2 *=play 6X 
G--------------------*----------2---|-------------------------------|
D----*-------*------4-------24-4-4-4-*-------*-------*-------*------|
A---0-------2-----------------------0-------2-------5-------5-------|
E-------------------------------------------------------------------|
:
# bridge # *=play 6X (He had a dream...)
G------------*---*---------------------------*---*---------------------|
D----*---*--2---2----*---*---*---*---*---*--2---2----*---*---*--75454--|
A---0---0-----------2---2---5---5---0---0-----------2---2---5--------7\|
E----------------------------------------------------------------------|
:
# outro # %=pause                                                      
G-------------------6--------6-7-9--8----12-----------------------%%%%%%%%%%-|
D---6--------6-7-9--7---------------9----11-----9-----------------%%%%%%%%%%-|
A---7-------------------------------9----12-----7-----------------%%%%%%%%%%-|
E---7-------------------------------------------0---------------0-%%%%%%%%%%0|





Comments


Popular Satanic Surfers tabs & chords
Count Me Out Bass Tabs
Dickweed Bass Tabs
Dickweed 1 Bass Tabs
Truck Driving Punk Chords
Before It's Too Late Tabs
Don't Know What To Do Tabs
Good Morning 2 Tabs
Nun Tabs
You Can Count Your Money In Your Graves, You Filthy Bastards Tabs
Dont Fade Away Ukulele


Song lyrics



↑ Back to top | Tablatures and chords are parodies/interpretations of the original songs. You may use it for private study, scholarship, research or language learning purposes only
© 2014 AZChords.com Contact us | Privacy policy | DMCA | Add/correct tabs | Request tabs | Top 50 tabs