» » »

Head Under Water Bass tabs (ver.1)

Artists:  A B C D E F G H I J K L M N O P Q R S T U V W X Y Z # 

Head Under Water Bass tabs (ver.1)

Satanic Surfers
Rating:
0/5 (0 votes)

Hard to play? Try these video lessons and learn fast.
                intro:
G:-----------------------------------------------------------------------------
D:----5-7p5-4--------5-7p5-4-7-5-4----5-7p5-4--------5-7p5-4-5-4---------------
A:-x5---------2---x5---------------x5---------2---x5-------------7-------------
E:--------------3-------------------------------3------------------3>-5-5-5-5--

verse:      
G:---------------------------|    |------------------------
D:---------------------------|    |------------------------
A:--5>-------7>-5>-----------|X 2 |--7>-8p7-8p7-8p7--------
E:-----5>-3>-------5>-3>-3-5-|    |-----------------3>-5>--

riff:
G:-------------------------------------------------------
D:----5-7p5-4--------5-7p5-4-5-4-------------------------
A:-x5---------2---x5-------------7-------5>-2>-----------
E:--------------3------------------3>-5>-------0>-3>-5>--

chorus:
G:-----------------|    |--------
D:--------------2>-|    |--------
A:--2>-------5>----|X 2 |--------
E:-----3>-5>-------|    |-3>-5>--

verse 2:
G:----------------------------------------------------------
D:----------------------5-4h5-4-----------------------------
A:-5>-------7>-5>---------------7-5>-------7>-5>------------
E:----5>-3>-------5>-3>--------------5>-3>-------5>-3>-3-5--

bridge:
G:---------------
D:---------------
A:--5>-------7>-- X 2
E:-----5>-3>-----

chorus

outro:
G:----------------------------------
D:----5-7p5-4--------5-7p5-4-7-5-4--
A:-X5---------2---x5----------------
E:--------------3-------------------

G:------------------------------------------------
D:----5-7p5-4--------5-7p5-4-5-4---7-5-4-9-7-6----
A:-x5---------2---x5-------------7-------------5--
E:--------------3---------------------------------
            
Hard to play? Try these video lessons and learn fast. | Correct




comments powered by Disqus
↑ Back to top | Tablatures and chords are parodies/interpretations of the original songs. You may use it for private study, scholarship, research or language learning purposes only