» » »

Satanic Surfers, Got To Throw Up Bass tabs (ver.1)

Artists:  A B C D E F G H I J K L M N O P Q R S T U V W X Y Z # 

Got To Throw Up Bass tabs (ver.1)

Satanic Surfers Tabs
 Rating:
4/5 (4 votes)
Got To Throw Up lessons Tabs too difficult? Try these video lessons and learn fast
                # intro #
G----------------12------------------------------12--1412-----------|
D--1414--14121314----141312--------1414--14121314----------14--12---|
A--------------------------141210-----------------------------------|
E--------------------------------12---------------------------------|
:             
# intro2 # *=play 5X  #=play 3X  %=pause                            >
G---%-------%-------%---------------%-------%-------%---------7----->      
D---%----5--%----975%-*-------------%----5--%----975%----5---9-9-757>
A---%7-7--75%7-7----%5-------#---#--%7-7--75%7-7----%7-7--75-------->
E---%-------%-------%-------3---5---%-------%-------%--------------->
intro2
---%-------%-------%---------------%-------%-------%---------7-----|
---%----5--%----975%-*-------------%----5--%----975%----5---9-9-754|
---%7-7--75%7-7----%5-------#---#--%7-7--75%7-7----%7-7--75--------|
---%-------%-------%-------3---5-//%-------%-------%---------------|
:
# end-intro # *=play 6X
G------------------7|
D----*----------79--| >>>main!
A---2-------5/9-----|
E-------------------|
:        õ=12     
# main # +=play 10-15X  *=play 6X #=play 3X %=pause                 >
G---õ9+---------------------------7--------------------------------->
D----------------975-+-------457-9-9-+-----------975---------------->
A-------------------5---------------7----------------*-------#------>
E---------------------------------------------------3-------7----765>
main
---------------------------------7--------------------------%%%%---|
----+-----------975-+-------457-9-9-+-----------975---------%%%%---|
---7---------------5---------------7----------------*-------%%%%---|
---------------------------------------------------3-------7%%%%765|
:
# verse # *=play 5-6X  #=play 3X
G-------------------------------------------------------------------|
D----*-------*-------#---#---*-------*-------*-------#---#---*------|
A---7-------2-------3---5---7------57-------2-------3---5---7-------|
E-------------------------------------------------------------------|
:
# verse-part2 # *=play 6X #=play 3X                                 >
G------------------------------------------------------------------->    
D--------------------#---------------#------------------------------>   
A----*-------*------7----5---*------7----5---*-------#-------#------>  
E---5-------7-------------753-------------753-------6----6536----653> 
verse-part2
--------------------#-------#-------#-------------|
-------------------8----8758----8758----875-------|
----#------77-57-\-------------------------7757-\-|
---6----653---------------------------------------|
:                                      
# bridge # #=play 3X *=play 5X %=pause                 
G--|-----%%%-----%%%-----%%%-------|--------------------------------|                         
D--|-*---%%%-*---%%%-*---%%%-------|-*-------*-------*--------------|
A--|7----%%%5----%%%7----%%%-#-----|7---/11-5----/9-7---/11--#------|
E--|-----%%%-----%%%-----%%%3----765------------------------3----765|
:  |           |2X|                |            |2X|                |
Then play verse.
:
# verse2-part2 # *=play 6X #=play 3X
G-----------------------------------------------------------|              
D----*-------*-------#---------------#---#---*-------#---#--|
A---3-------5-------7---75-5-#---#--3---5---7-------3---5---| 
E---------------------------3---5---------------------------|
:
# bridge # *=play 6X #=play 3X
G---%-------%-------%---------7---------------------|
D---%----5--%----975%----5---9-9-754-*-------#------|
A---%7-7--75%7-7----%7-7--75--------2-------5----///|
E---%-------%-------%-------------------------------|
:
# intro-bridge # *=play 6X %=pause                                  >
G----------------12------------------------------10----------------->
D--1414--14121314----141312--------1212--12101112----121110--------->
A--------------------------141210--------------------------1210-8--->
E--------------------------------12------------------------------10->
intro-bridge
----------------12--1412------------*---------------%%%%%%/9--7----|
--1414--14121314----------14--12---5--------------/9%%%%%%-------9-|
----------------------------------------------------%%%%%%---------|
----------------------------------------------------%%%%%%---------|
:
# main2 # X5 +=play 10-15X  *=play 6X #=play 3X 
G---------------------------------7---------------------------------|
D----+-----------975-+-------457-9-9-+-----------975----------------|
A---7---------------5---------------7----------------*-------#------|
E---------------------------------------------------3-------7----765|
:
# outro #  h=hammer-on
G---------7-/12-9-----------|
D---5-7-9-------------------|
A---------------------------|
E-----------------------0---|
            
Submit corrections

comments powered by Disqus
↑ Back to top | Satanic Surfers Bass for Got To Throw Up. Lyrics for acoustic guitar and electric guitar. Tablatures and chords are parodies/interpretations of the original songs. You may use it for private study, scholarship, research or language learning purposes only