» » »

Good Morning Tabs (ver.2)

Artists:  A B C D E F G H I J K L M N O P Q R S T U V W X Y Z # 

Good Morning Tabs (ver.2)

Satanic Surfers
Rating:
0/5 (0 votes)

Tabs too difficult? Try these video lessons and learn fast.
                Good Morning - Satanic Sufers (the solo only)
i was trying to learn this song, but i've noticed that no one has tabbed the solo, so 
to learn it by ear...and it worked!
so here it this!!


e|--------------------------------------------------------------------------|
b|--------------------------------------------------------------------------|
g|---------------------------------------------9999-7/9999-7/9999/14-13-11~-|
d|-7777-9-11-9-999-11-9-7777-9-7-11-9-11-9-11-------------------------------|
a|--------------------------------------------------------------------------|
e|--------------------------------------------------------------------------|

e|--------------------------------------------------------------------------|
b|--------------------------------------------------------------------------|
g|-141311-141311-141311-141311-141311-141316~--18~-18/16~-16/14~-14-1614/9~-|
d|--------------------------------------------------------------------------|
a|--------------------------------------------------------------------------|
e|--------------------------------------------------------------------------|

e|---------------------------------------------------------------------|
b|----------------------------------------------------------------10~~-|
g|-/9-9999/4-4444/6-6666/2-2222----------------------------9-9999------|
d|-------------------------------7-777-9-11-9-999-11-9-9~--------------|
a|---------------------------------------------------------------------|
e|---------------------------------------------------------------------|

hope you enjoyed it!
please rate it!
            
Tabs too difficult? Try these video lessons and learn fast.




comments powered by Disqus
↑ Back to top | Tablatures and chords are parodies/interpretations of the original songs. You may use it for private study, scholarship, research or language learning purposes only