» » »

Satanic Surfers, Good Morning Tabs (ver.1)

Artists:  A B C D E F G H I J K L M N O P Q R S T U V W X Y Z # 

Good Morning Tabs (ver.1)

Satanic Surfers Tabs
Rating:
0/5 (0 votes)
Good Morning lessons Tabs too difficult? Try these video lessons and learn fast
                
intro  3x
e|------------------------------------------------------|
b|------------------------------------------------------|
g|-------------7-7--7-6-------9>--77-7-66-6-----------6-|
d|---7>>--6>>--7-7--7-6--4>>--9>--77-7-66-6--2~----7h9--|
a|---7>>--7>>--5-5--5-4--4>>--7>--55-5-44-4--2~-7h9-----|
e|---5>>--4>>------------2>>-----------------0~---------|
PM                                 **   **

verse  2x
e|------------------------------------------------|
b|------------------------------------------------|
g|--------6>>>-----------6-4-2------9>------------|
d|---7>>>-6>>>-6-4-2-4>>--------2>--9>------------|
a|---7>>>-4>>>-------4>>--------2>--7>------------|
e|---5>>>------------2>>--------0>----------------|

verse  break
e|-----------------------------------|
b|-----------------------------------|
g|--2>>-4>>------66-6-77-7-99-9------|
d|--2>>-4>>-44-4-66-6-77-7-99-9------|
a|--0>>-2>>-44-4-44-4-55-5-77-7------|
e|----------22-2---------------------|
PM          **   **   **   **

repeat verse twice and verse break

chorus  2x
e|-----------------------------------------|
b|-----------------------------------------|
g|----------7>>----------------------------|
d|--7>>-6>>-7>>-2>>------------------------|
a|--7>>-7>>-5>>-2>>------------------------|
e|--5>>-4>>-----0>>------------------------|

chorus  break
e|--------------------------------------------------------|
b|--------------------------------------------------------|
g|-------------7---------------------7>-6>------11>-9>----|
d|--7----------7-5-4-0-7--7----------7>-6>-4>>--11>-9>----|
a|--7-5-4-0-7--5----------7-5-4-0-7--5>-4>-4>>--9>--7>----|
e|--5---------------------5----------------2>>------------|


play verse and verse break


2x
e|----------------------------------------|
b|----------------------------------------|
g|----------7>>---------------------------|
d|--7>>-6>>-7>>-2>>-----------------------|
a|--7>>-7>>-5>>-2>>-----------------------|
e|--5>>-4>>-----0>>-----------------------|
PM              *


play chorus and chorus break

play intro once


bridge
e|---------------------------------------------------|
b|---------------------------------------------------|
g|-------------9-99-9-9--11-1111-11-11--7-77-7-7-----|
d|---7-77-7-7--9-99-9-9--11-1111-11-11--7-77-7-7-----|
a|---7-77-7-7--7-77-7-7--9--9-9--9--9---5-55-5-5-----|
e|---5-55-5-5----------------------------------------|
PM     **        **         * *           **

now play the solo while the other guitar plays the bridge

thats's it! i posted the solo alone in another tab
            

comments powered by Disqus
↑ Back to top | Satanic Surfers Tabs for Good Morning. Lyrics for acoustic guitar and electric guitar. Tablatures and chords are parodies/interpretations of the original songs. You may use it for private study, scholarship, research or language learning purposes only