» » »

Satanic Surfers, Goddamn Fucking Hypocrites Tabs (ver.1)

Artists:  A B C D E F G H I J K L M N O P Q R S T U V W X Y Z # 

Goddamn Fucking Hypocrites Tabs (ver.1)

Satanic Surfers Tabs
 Rating:
4.2/5 (5 votes)
Goddamn Fucking Hypocrites lessons Tabs too difficult? Try these video lessons and learn fast
1
                # intro #A
E--------------------------------------------------------------------/------|
B-----------------------------------8--------------10--8------------810-----|
G-------9---7-----------9---7-----------9-------7-9-------9-7---------------|
D---7----------10-9-7----------10-9--------10-----------------10--9---------|
A---------------------------------------------------------------------------|
E---------------------------------------------------------------------------|
# intro #B *=play 6X #=play 3X %=pause
E-------------------------------------------%%|
B--------------------*---*------------#-#---%%|
G----*---*---*---*--5---5----*---*--#-9-7-54%%|
D---7---7---5---5---5---5---3---5---7-9-7-54%%|
A---7---7---5---5---3---3---3---5---7-7-5-32%%|
E---5---5---3---3-----------1---3---5-7-5-32%%|
:
# verse #A&B *=play 6X +=play 3X palm-muted
E---------------------------------------------------|
B--------------------------------------------*---*--|
G-------------------------------------------7---9---|
D---7---------------3---------------------+-7---9---|
A---7---------------3---------------------3-5---7---|
E---5---------------1---------------------1-5---7---|
:
# verse-part2 #A *=play 6X #=play 3X +=play 3X palm-muted
E---------------------------------------------------|
B--------------------*---*---*--#------------*---*--|
G-------------------5---5---5---5-#--*---*--7---9---|
D---7-------------+-------------5-5-3---3---7---9---|
A---7-------------3-3---3---3---3-5-3---3---5---7---|
E---5-------------1---------------3-1---1-----------|
# verse-part2 #B *=play 6X #=play 3X +=play 3X palm-muted
E---------------------------------------------------|
B--------------------*---*---*--#------------*---*--|
G------------------10--10--10---5-#--*---*--7---9---|
D---7-------------+10--10--10---5-5-3---3---7---9---|
A---7-------------3-8---8---8---3-5-3---3---5---7---|
E---5-------------1---------------3-1---1-----------|
:                          !=play 6X (!1st chord palm-muted!)
# chorus #A&B X2 *=play 6X +=play 3X (!1st chord palm-muted!)
E-----------------------------------|
B--------------------*------!-------|
G----*---*---*---*--5---+-+-5---+-+-|
D---5---5---3---3---5---3-5-5---3-5-|
A---5---5---3---3---3---3-5-3---3-5-|
E---3---3---1---1-------1-3-----1-3-|
:
# bridge #A&B *=play 6X #=play 3X
E--|------------|2X|---------------|-------------|2X|--------------|--------|
B--|-(!A-only-1st-chord-1st-time!)-|-------------------------------|--------|
G--|------------------*------*-----|----------#---#-----------#--#-|--------|
D--|99-999-799-999-710------7------|99-9997910---5--99-9997910--7--|3-------|
A--|77-777-577-777-710------5------|77-7777910---5--77-7777910--5--|3-------|
E--|77-777-577-777-5-8------5------|77-77757-8---3--77-77757-8--5--|1-------|
:
Then play AintroA or BintroB, Averse-part2A or Bverse-part2B and A&BchorusA&B.
:
# outro #A %=pause                    # outro #B %=pause
E----------------%%%----------------|>E----------------%%%----------------|
B----------------%%%----------------|G---8-------7---7%%%5---------------|
D---8-------7---7%%%5---------------|A---6-------5---5%%%3---------------|
E---6-------5---5%%%3---------------|
            
Submit corrections

comments powered by Disqus
↑ Back to top | Satanic Surfers Tabs for Goddamn Fucking Hypocrites. Lyrics for acoustic guitar and electric guitar. 1 Tablatures and chords are parodies/interpretations of the original songs. You may use it for private study, scholarship, research or language learning purposes only