» » »

Satanic Surfers, Even If Time Stood Still Bass tabs (ver.1)

Artists:  A B C D E F G H I J K L M N O P Q R S T U V W X Y Z # 

Even If Time Stood Still Bass tabs (ver.1)

Satanic Surfers Tabs
 Rating:
4/5 (4 votes)
Even If Time Stood Still lessons Tabs too difficult? Try these video lessons and learn fast
                # verse # X2 h=hammer-on %=pause *=play 5-6X #=play 3X                >
G---------------------------%---------------------------------hh--5--->
D---------------------------%-----3------------------------hh3457---5->
A---3-----------------------%--------*-------*-------#----345--------->
E---------------------------%5--3---1-------3-------5---35------------>
verse
---%-------%-------------------hh--5-|
---%-------%----------------hh3457---|
---%-*-----%-*------*------345-------|
---%1------%1------3-----------------|
:              %=pause
# pre-chorus # *=play 6X #=play 3X p=pull-off    p           %=pause>
G----------------5------------5--p-------------5757-97-575-4-------->
D----*-------#--7-7--*------7--8757--*------7-8-------------75------>
A---0-------0-------3---------------5--------------------------753-->
E------------------------------------------------------------------->
pre-chorus
-------------------------------------------|
----#---#-----------#---#------------------|
---0---3----#---#--0---3----#---#--0-------|
-----------1---3-----------1---3-----------|
:
# chorus # *=play 5-7X #=play 3-4X                                   
G--|-*-------45--44---------#--5#--|-*-------45--44|-------------|2X|--------|
D--|3------55--------*-----7-------|3------55------|0-0-02-2-3-5-------------|
A--|----------------0--------------|---------------|--------------3--*------*|
E--|------------|3X|---------------|---------------|----------------1-------3|
:
Then play last row of pre-chorus (!not last note!) and verse (!1st note 18X!).
:
# verse2-part2 #    h=hammer-on %=pause *=play 5-6X #=play 3X        >
G---------------------------%--------------------------------hh5----->
D----*-------*-------*------%-----3-----------------------5-567------>
A---3-------3-------3-------%--------*-------*---------7-7------8--7->
E---------------------------%5--3---1-------3-------5---------------->
verse
---%-------%-------------------hh--5-|
---%-------%----------------hh3457---| > Then play pre-chorus and chorus.
---%-*-----%-*------*------345-------|
---%1------%1------3-----------------|
:
# outro # #=play 3X "=play 2X                                       >
G--|------------|6X|--------------|--------"-12--10----------------|>
D--|-#------"-5---3---------------|--#-----10--------#-------#-----|>
A--|0-------3--------#-------#----|12---------------8------10------|>
E--|----------------1-------3-----|-----------|4X|-----------------|>
outro
----------FAST!-----------12-|
----------------101214-------|
---0-010-101212--------------|
-----------------------------|
            
Submit corrections

comments powered by Disqus
↑ Back to top | Satanic Surfers Bass for Even If Time Stood Still. Lyrics for acoustic guitar and electric guitar. Tablatures and chords are parodies/interpretations of the original songs. You may use it for private study, scholarship, research or language learning purposes only