>
 >
Don't Skate On My Ramp

Don't Skate On My Ramp Guitar Tabs

Satanic Surfers - Don't Skate On My Ramp chords, tabs, tablatures, lyrics

Guitar lessons | Add/correct | Request | Top 50 tabs Artists:  A B C D E F G H I J K L M N O P Q R S T U V W X Y Z 0-9

Don't Skate On My Ramp Guitar Tabs – Satanic Surfers

CD, Sheet music, Poster

Do you like Don't Skate On My Ramp? Share with your friends now
Tabs
----------------------------------------------------------------------------- 
----------------------------------------------------------------------------- 


INTRO: 
e|---------------------------| 
B|---------------------------| 
G|-------------------6p4-----| 
D|-9xxxx-7-6-4-6xxxx-----6p4-| 
A|-7xxxx-------4xxxx---------| 
E|---------------------------| 

e|---------------------------| 
B|---------------------------| 
G|-------------------6p4-----| 
D|-9xxxx-7-6-4-6xxxx-----6p4-| 
A|-7xxxx-------4xxxx---------| 
E|---------------------------| 

e|---------------------------| 
B|---------------------------| 
G|-------------------6p4-----| 
D|-9xxxx-7-6-4-6xxxx-----6p4-| 
A|-7xxxx-------4xxxx---------| 
E|---------------------------| 

e|------------------------------------| 
B|------------------------------------| 
G|------------------------------------| 
D|------------------------------------| 
A|-9---------------9/11---------------| 
E|-7-7-7-7-7-7-7-7-7/-9-9-9-9-9-9-9-9-| 
- - - - - - - - - - - - - - 

RIFF 1: 
e|---------------------------------| 
B|---------------------------------| 
G|---------------------------------| 
D|-9-----9-------9/11-----11/6-----| 
A|-7-7-7-7/6-6-6-6/-9-9-9--9/4-4-4-| 
E|---------------------------------| 
- - - - - - - - 

e|-------------------------------| 
B|-------------------------------| 
G|-------------------------------| 
D|-6/9-----9-------9/9-----------| 
A|-4/7-7-7-7/6-6-6-6/7-7-7-7-7-9-| 
E|---------------------------5-7-| 
- - - - - - - 

e|---------------------------------| 
B|---------------------------------| 
G|---------------------------------| 
D|-9-----9-------9/11-----11/6-----| 
A|-7-7-7-7/6-6-6-6/-9-9-9--9/4-4-4-| 
E|---------------------------------| 
- - - - - - - - 

e|----------------------------------| 
B|----------------------------------| 
G|---------------------------9-11---| 
D|-6/9-----9-------9/9-------7--9---| 
A|-4/7-7-7-7/6-6-6-6/7-7-7-7--------| 
E|----------------------------------| 
- - - - - - - 

e|---------------------------------| 
B|---------------------------------| 
G|---------------------------------| 
D|-9-----9-------9/11-----11/6-----| 
A|-7-7-7-7/6-6-6-6/-9-9-9--9/4-4-4-| 
E|---------------------------------| 
- - - - - - - - 

e|----------------------------------| 
B|----------------------------------| 
G|---------------------------9-11---| 
D|-6/9-----9-------9/9-------7--9---| 
A|-4/7-7-7-7/6-6-6-6/7-7-7-7--------| 
E|----------------------------------| 
- - - - - - - 


VERSE 1: 
e|-----------------------------------| 
B|-----------------------------------| 
G|-9-9-9-9-9-9-9-9---------11-11-7---| 
D|-9-9-9-9-9-9-9-9-9-9-9-9-11-11-7-7-| 
A|-7-7-7-7-7-7-7-7-9-9-9-9--9--9-5-7-| 
E|-----------------7-7-7-7---------5-| 

May i say something to you 
e|---------------------------------| 
B|---------------------------------| 
G|-9-9-9-9-------------------------| 
D|-9-9-9-9-7-7-7-7-9-9-9-9-9-9-9-9-| 
A|-7-7-7-7-7-7-7-7-9-9-9-9-9-9-9-9-| 
E|---------5-5-5-5-7-7-7-7-7-7-7-7-| 

straight from my heart, you know it's true. 
e|---------------------------------| 
B|---------------------------------| 
G|-9-9-9-9-------------------------| 
D|-9-9-9-9-7-7-7-7-4-4-4-4-7-7-7-7-| 
A|-7-7-7-7-7-7-7-7-4-4-4-4-7-7-7-7-| 
E|---------5-5-5-5-2-2-2-2-5-5-5-5-| 

I think you're so fucking sick, you're stupid and you're weak and 
e|-----------------| 
B|-----------------| 
G|-----------------| 
D|-9-9-9-9-7-7-7-7-| 
A|-9-9-9-9-7-7-7-7-| 
E|-7-7-7-7-5-5-5-5-| 

everything you stand for is fucking 
RIFF 2: 
e|---------------------------------| 
B|---------------------------------| 
G|-9-9-9-9-------------------------| 
D|-9-9-9-9-7-7-7-7-4-4-4-4-9-9-9-9-| 
A|-7-7-7-7-7-7-7-7-4-4-4-4-9-9-9-9-| 
E|---------5-5-5-5-2-2-2-2-7-7-7-7-| 

wrong. 
VERSE 2: 
e|-------------------------------------------------| 
B|-------------------------------------------------| 
G|-9-------------------------------------11-11-7---| 
D|-9-----------------------------9-9-9-9-11-11-7-7-| 
A|-7-7-7-7-7-7-7-7-7-7-7-7-7-7-7-9-9-9-9--9--9-5-7-| 
E|-------------------------------7-7-7-7---------5-| 
- - - - - - - - - - - - - - 

Why don't you think a second time 
e|---------------------------------| 
B|---------------------------------| 
G|-9-9-9-9-------------------------| 
D|-9-9-9-9-7-7-7-7-9-9-9-9-9-9-9-9-| 
A|-7-7-7-7-7-7-7-7-9-9-9-9-9-9-9-9-| 
E|---------5-5-5-5-7-7-7-7-7-7-7-7-| 

and try to keep an open mind. Maybe 
e|---------------------------------| 
B|---------------------------------| 
G|-9-9-9-9-------------------------| 
D|-9-9-9-9-7-7-7-7-4-4-4-4-7-7-7-7-| 
A|-7-7-7-7-7-7-7-7-4-4-4-4-7-7-7-7-| 
E|---------5-5-5-5-2-2-2-2-5-5-5-5-| 

then you'll understand learn to lend a helping hand, 
e|-----------------| 
B|-----------------| 
G|-----------------| 
D|-9-9-9-9-7-7-7-7-| 
A|-9-9-9-9-7-7-7-7-| 
E|-7-7-7-7-5-5-5-5-| 

instead of using it for masturbation 
RIFF 3: 
e|-----------------------------------------| 
B|-----------------------------------------| 
G|-----------------------------------------| 
D|-----9-----7-----9----------------7-7xxx-| 
A|-7-7-7-5-5-5-7-7-7-7-6---4-4xxx-5-5-5xxx-| 
E|-------------------5-4-2-2-2xxx----------| 
- - - - - - - - 

only. 
e|----------------------------------------| 
B|----------------------------------------| 
G|----------------------------------------| 
D|---9-9xxx-4h6h7-----6------------7-7xxx-| 
A|-7-7-7xxx-------7h9-----4-4xxx-5-5-5xxx-| 
E|----------------------2-2-2xxx----------| 
- - - 

e|-----------------------| 
B|-----------------------| 
G|-----------------------| 
D|-----9-----7-----9-7-6-| 
A|-7-7-7-5-5-5-7-7-7-7-6-| 
E|-------------------5-4-| 

PRE-CHORUS 1: 
e|---------------------------------| 
B|---------------------------------| 
G|---------------------------------| 
D|-2-2-2-2-2-2-2-2-4-4-4-4-4-4-4-4-| 
A|-2-2-2-2-2-2-2-2-4-4-4-4-4-4-4-4-| 
E|-0-0-0-0-0-0-0-0-2-2-2-2-2-2-2-2-| 

You are a nazi skinhead and I know you hate me 
e|-----------------------------------| 
B|-----------------------------------| 
G|-----------------------------------| 
D|-7-7-7-7-7-7-7-7-9-9-9-----9-----7-| 
A|-7-7-7-7-7-7-7-7-9-9-9-----9-----7-| 
E|-5-5-5-5-5-5-5-5-7-7-7-7-7-7-5-5-5-| 
- - - - 

because i'm not like you no and I don't share your opinion. 
e|---------------------------------| 
B|---------------------------------| 
G|---------------------------------| 
D|-2-2-2-2-2-2-2-2-4-4-4-4-4-4-4-4-| 
A|-2-2-2-2-2-2-2-2-4-4-4-4-4-4-4-4-| 
E|-0-0-0-0-0-0-0-0-2-2-2-2-2-2-2-2-| 

Your fascist way of thinking, your racist point of view and 
e|-----------------------------------| 
B|-----------------------------------| 
G|-----------------------------------| 
D|-7-7-7-7-7-7-7-7-9-9-9-----9-----7-| 
A|-7-7-7-7-7-7-7-7-9-9-9-----9-----7-| 
E|-5-5-5-5-5-5-5-5-7-7-7-7-7-7-5-5-5-| 
- - - - 

your primitive way of acting tell you what you can do now 
CHORUS 1: 
e|---------------------------------| 
B|---------------------------------| 
G|---------------------------------| 
D|-2-2-2-2-4-4-4-4-7-7-7-7-7-7-7-7-| 
A|-2-2-2-2-4-4-4-4-7-7-7-7-7-7-7-7-| 
E|-0-0-0-0-2-2-2-2-5-5-5-5-5-5-5-5-| 

you can take your nationalism, 
e|---------------------------------| 
B|---------------------------------| 
G|---------------------------------| 
D|-2-2-2-2-4-4-4-4-7-7-7-7-7-7-7-7-| 
A|-2-2-2-2-4-4-4-4-7-7-7-7-7-7-7-7-| 
E|-0-0-0-0-2-2-2-2-5-5-5-5-5-5-5-5-| 

and you can shove it up your asses. 
e|---------------------------------| 
B|---------------------------------| 
G|---------------------------------| 
D|-2-2-2-2-4-4-4-4-7-7-7-7-7-7-7-7-| 
A|-2-2-2-2-4-4-4-4-7-7-7-7-7-7-7-7-| 
E|-0-0-0-0-2-2-2-2-5-5-5-5-5-5-5-5-| 

you can take your white arian pride now, 
e|---------------------------------| 
B|---------------------------------| 
G|---------------------------------| 
D|-2-2-2-2-4-4-4-4-7-7-7-7-7-7-7-7-| 
A|-2-2-2-2-4-4-4-4-7-7-7-7-7-7-7-7-| 
E|-0-0-0-0-2-2-2-2-5-5-5-5-5-5-5-5-| 

and you can shove it up your asses. 
RIFF 4: 
e|-----------------------------------------------| 
B|-----------------------------------------------| 
G|-----------------------------------------------| 
D|-----2-----4-----7-7-7-----2-----4-----7-7-7-7-| 
A|-----2-----4-----7-7-7-----2-----4-----7-7-7-7-| 
E|-0-0-0-2-2-2-5-5-5-5-5-0-0-0-2-2-2-5-5-5-5-5-5-| 


INTRO 2: 
e|---------------------------| 
B|---------------------------| 
G|-------------------6p4-----| 
D|-9xxxx-7-6-4-6xxxx-----6p4-| 
A|-7xxxx-------4xxxx---------| 
E|---------------------------| 

e|---------------------------| 
B|---------------------------| 
G|-------------------6p4-----| 
D|-9xxxx-7-6-4-6xxxx-----6p4-| 
A|-7xxxx-------4xxxx---------| 
E|---------------------------| 

e|---------------------------| 
B|---------------------------| 
G|-------------------6p4-----| 
D|-9xxxx-7-6-4-6xxxx-----6p4-| 
A|-7xxxx-------4xxxx---------| 
E|---------------------------| 

e|------------------------------------| 
B|------------------------------------| 
G|------------------------------------| 
D|------------------------------------| 
A|-9---------------9/11---------------| 
E|-7-7-7-7-7-7-7-7-7/-9-9-9-9-9-9-9-9-| 
- - - - - - - - - - - - - - 

BRIDGE: 
e|---| 
B|---| 
G|-9-| 
D|-9-| 
A|-7-| 
E|---| 

e|-------------------------3-x-3-x-3-x-5-x-5-x-5-x-| 
B|-9-x-9-x-9-x-7-x-7-x-7-x-3-x-3-x-3-x-5-x-5-x-5-x-| 
G|-9-x-9-x-9-x-7-x-7-x-7-x-4-x-4-x-4-x-6-x-6-x-6-x-| 
D|-9-x-9-x-9-x-7-x-7-x-7-x-5-x-5-x-5-x-7-x-7-x-7-x-| 
A|-7-x-7-x-7-x-5-x-5-x-5-x-5-x-5-x-5-x-7-x-7-x-7-x-| 
E|-------------------------3-x-3-x-3-x-5-x-5-x-5-x-| 

e|-------------------------3-x-3-x-3-x-5-x-5-x-5-x-| 
B|-9-x-9-x-9-x-7-x-7-x-7-x-3-x-3-x-3-x-5-x-5-x-5-x-| 
G|-9-x-9-x-9-x-7-x-7-x-7-x-4-x-4-x-4-x-6-x-6-x-6-x-| 
D|-9-x-9-x-9-x-7-x-7-x-7-x-5-x-5-x-5-x-7-x-7-x-7-x-| 
A|-7-x-7-x-7-x-5-x-5-x-5-x-5-x-5-x-5-x-7-x-7-x-7-x-| 
E|-------------------------3-x-3-x-3-x-5-x-5-x-5-x-| 

e|-------------------------3-x-3-x-3-x-5-x-5-x-5-x-| 
B|-9-x-9-x-9-x-7-x-7-x-7-x-3-x-3-x-3-x-5-x-5-x-5-x-| 
G|-9-x-9-x-9-x-7-x-7-x-7-x-4-x-4-x-4-x-6-x-6-x-6-x-| 
D|-9-x-9-x-9-x-7-x-7-x-7-x-5-x-5-x-5-x-7-x-7-x-7-x-| 
A|-7-x-7-x-7-x-5-x-5-x-5-x-5-x-5-x-5-x-7-x-7-x-7-x-| 
E|-------------------------3-x-3-x-3-x-5-x-5-x-5-x-| 

e|-------------------------3-x-3-x-3-x-5-x-5-x-5-x-| 
B|-9-x-9-x-9-x-7-x-7-x-7-x-3-x-3-x-3-x-5-x-5-x-5-x-| 
G|-9-x-9-x-9-x-7-x-7-x-7-x-4-x-4-x-4-x-6-x-6-x-6-x-| 
D|-9-x-9-x-9-x-7-x-7-x-7-x-5-x-5-x-5-x-7-x-7-x-7-x-| 
A|-7-x-7-x-7-x-5-x-5-x-5-x-5-x-5-x-5-x-7-x-7-x-7-x-| 
E|-------------------------3-x-3-x-3-x-5-x-5-x-5-x-| 

e|-------------------------3-x-3-x-3-x-5-x-5-x-5-x-| 
B|-9-x-9-x-9-x-7-x-7-x-7-x-3-x-3-x-3-x-5-x-5-x-5-x-| 
G|-9-x-9-x-9-x-7-x-7-x-7-x-4-x-4-x-4-x-6-x-6-x-6-x-| 
D|-9-x-9-x-9-x-7-x-7-x-7-x-5-x-5-x-5-x-7-x-7-x-7-x-| 
A|-7-x-7-x-7-x-5-x-5-x-5-x-5-x-5-x-5-x-7-x-7-x-7-x-| 
E|-------------------------3-x-3-x-3-x-5-x-5-x-5-x-| 

e|-------------------------3-x-3-x-3-x-5-x-5-x-5-x-| 
B|-9-x-9-x-9-x-7-x-7-x-7-x-3-x-3-x-3-x-5-x-5-x-5-x-| 
G|-9-x-9-x-9-x-7-x-7-x-7-x-4-x-4-x-4-x-6-x-6-x-6-x-| 
D|-9-x-9-x-9-x-7-x-7-x-7-x-5-x-5-x-5-x-7-x-7-x-7-x-| 
A|-7-x-7-x-7-x-5-x-5-x-5-x-5-x-5-x-5-x-7-x-7-x-7-x-| 
E|-------------------------3-x-3-x-3-x-5-x-5-x-5-x-| 

PRE-CHORUS 2: 
e|---------------------------------| 
B|---------------------------------| 
G|---------------------------------| 
D|-2-2-2-2-2-2-2-2-4-4-4-4-4-4-4-4-| 
A|-2-2-2-2-2-2-2-2-4-4-4-4-4-4-4-4-| 
E|-0-0-0-0-0-0-0-0-2-2-2-2-2-2-2-2-| 

You are a nazi skinhead and I know you hate me 
e|---------------------------------| 
B|---------------------------------| 
G|---------------------------------| 
D|-7-7-7-7-7-7-7-7-9-9-9-9-9-9-7-7-| 
A|-7-7-7-7-7-7-7-7-9-9-9-9-9-9-7-7-| 
E|-5-5-5-5-5-5-5-5-7-7-7-7-7-7-5-5-| 

because i'm not like you no and I don't share your opinion. 
e|---------------------------------| 
B|---------------------------------| 
G|---------------------------------| 
D|-2-2-2-2-2-2-2-2-4-4-4-4-4-4-4-4-| 
A|-2-2-2-2-2-2-2-2-4-4-4-4-4-4-4-4-| 
E|-0-0-0-0-0-0-0-0-2-2-2-2-2-2-2-2-| 

Your fascist way of thinking, your racist point of view and 
e|---------------------------------| 
B|---------------------------------| 
G|---------------------------------| 
D|-7-7-7-7-7-7-7-7-9-9-9-9-9-9-7-7-| 
A|-7-7-7-7-7-7-7-7-9-9-9-9-9-9-7-7-| 
E|-5-5-5-5-5-5-5-5-7-7-7-7-7-7-5-5-| 

your primitive way of acting tell you what you can do now 
CHORUS 2: 
e|---------------------------------| 
B|---------------------------------| 
G|---------------------------------| 
D|-2-2-2-2-4-4-4-4-7-7-7-7-7-7-7-7-| 
A|-2-2-2-2-4-4-4-4-7-7-7-7-7-7-7-7-| 
E|-0-0-0-0-2-2-2-2-5-5-5-5-5-5-5-5-| 

you can take your nationalism, 
e|---------------------------------| 
B|---------------------------------| 
G|---------------------------------| 
D|-2-2-2-2-4-4-4-4-7-7-7-7-7-7-7-7-| 
A|-2-2-2-2-4-4-4-4-7-7-7-7-7-7-7-7-| 
E|-0-0-0-0-2-2-2-2-5-5-5-5-5-5-5-5-| 

and you can shove it up your asses. 
e|---------------------------------| 
B|---------------------------------| 
G|---------------------------------| 
D|-2-2-2-2-4-4-4-4-7-7-7-7-7-7-7-7-| 
A|-2-2-2-2-4-4-4-4-7-7-7-7-7-7-7-7-| 
E|-0-0-0-0-2-2-2-2-5-5-5-5-5-5-5-5-| 

you can take your white arian pride now, 
e|---------------------------------| 
B|---------------------------------| 
G|---------------------------------| 
D|-2-2-2-2-4-4-4-4-7-7-7-7-7-7-7-7-| 
A|-2-2-2-2-4-4-4-4-7-7-7-7-7-7-7-7-| 
E|-0-0-0-0-2-2-2-2-5-5-5-5-5-5-5-5-| 

and you can shove it up your asses. 
e|---------------------------------| 
B|---------------------------------| 
G|---------------------------------| 
D|-2-2-2-2-4-4-4-4-7-7-7-7-7-7-7-7-| 
A|-2-2-2-2-4-4-4-4-7-7-7-7-7-7-7-7-| 
E|-0-0-0-0-2-2-2-2-5-5-5-5-5-5-5-5-| 

and you can shove it up your asses. 
e|-------------------| 
B|-------------------| 
G|-------------------| 
D|-2-2-2-2-4-4-4-4-7-| 
A|-2-2-2-2-4-4-4-4-7-| 
E|-0-0-0-0-2-2-2-2-5-| 

and you can shove it up your asses. 
ENDING: 
e|---------------------3-| 
B|---------------------3-| 
G|---------------------1-| 
D|-----6-6-7-7-8-8-9-2---| 
A|-7-7---------------2---| 
E|-------------------0---| 

e|-----| 
B|-----| 
G|-9-9-| 
D|-9-9-| 
A|-7-7-| 
E|-----| 


-------------------------------------------------------------------------------





Comments


Popular Satanic Surfers tabs & chords
End Of The World Bass Tabs
Equal Rights 1 Bass Tabs
Lost Bass Tabs
Miss Bigmouth Bass Tabs
Got To Throw Up Chords
Better Off Today Tabs
Don't Know What To Do Tabs
Killing Me Tabs
U Plus Ir1 Tabs
When Was The Last Time.. Tabs


Song lyrics



↑ Back to top | Tablatures and chords are parodies/interpretations of the original songs. You may use it for private study, scholarship, research or language learning purposes only
© 2014 AZChords.com Contact us | Privacy policy | DMCA | Add/correct tabs | Request tabs | Top 50 tabs