» » »

Satanic Surfers, Don't Know What To Do Tabs (ver.1)

Artists:  A B C D E F G H I J K L M N O P Q R S T U V W X Y Z # 

Don't Know What To Do Tabs (ver.1)

Satanic Surfers Tabs
 Rating:
4/5 (4 votes)
Don't Know What To Do lessons Tabs too difficult? Try these video lessons and learn fast
1
                ------------------------------------------------------------------------------- 
------------------------------------------------------------------------------- 


Intro: 
|-------------------------| 
|-------------------------| 
|--------66-88------------| 
|--66-99-66-88--6-9-1113--| 
|--66-99-44-66--6-9-1113--| 
|--44-77--------4-7-9-11--| 

Verse: 
|---------------------| |---------------------| 
|---------------------| |---------------------| 
|------989-----111111-| |------999-----111111-| 
|--666-989-999-111111-| |--666-999-999-111111-| 
|--666-767-999-9-9-9--| |--666-777-999-9-9-9--| 
|--444-----777--------|x2 |--444-----777--------|x2 (8 ggr. totalt) 

Chorus: 
|-------------------------------------| 
|-------------------------------------| 
|---------11111111-9-8-66666-9999-8---| 
|--999999-11111111-9-8-66666-9999-8-9-| 
|--999999-9-9-9-9--7-6-44444-7777-6-9-| 
|--777777---------------------------7-|x2-4 

|------------------------------------| 
|------------------------------------| 
|--------111111111111-999999-666-999-| 
|-999999-111111111111-999999-666-999-| 
|-999999-9-9-9-9-9-9--777777-444-777-| 
|-777777-----------------------------|x2-4 

Slow part: 
|------------------| 
|------------------| 
|-----1111-6-6-9-8-| 
|-9-9-1111-6-6-9-8-| 
|-9-9-9-9--4-4-7-6-| 
|-7-7--------------| 
xx x xx x x x x x x x xx x xxx x xx x xx x 
|-------------------------------------------------| 
|-------------------------------------------------| 
|-----------1111111111111111-6666666666-9999-8888-| 
|-9999-9999-1111111111111111-6666666666-9999-8888-| 
|-9999-9999-9-9-9-9-9-9-9-9--4444444444-7777-6666-| 
|-7777-7777---------------------------------------| 

|---------------------------------| 
|---------------------------------| 
|-4--6--9--12-10--4--6--9--11-13/-| 
|-2--4--7--12-10--2--4--7--11-13/-| 
|-2--4--7--10-9---2--4--7--9--11/-| 
|---------------------------------| 

Ending: 
|----------------| 
|----------------| 
|--------666-999-| 
|-999999-666-999-| 
|-999999-444-777-| 
|-777777---------| 

-------------------------------------------------------------------------------
            
Submit corrections

comments powered by Disqus
↑ Back to top | Satanic Surfers Tabs for Don't Know What To Do. Lyrics for acoustic guitar and electric guitar. 1 Tablatures and chords are parodies/interpretations of the original songs. You may use it for private study, scholarship, research or language learning purposes only