» » »

Satanic Surfers, Don Fade Away Bass tabs (ver.1)

Artists:  A B C D E F G H I J K L M N O P Q R S T U V W X Y Z # 

Don Fade Away Bass tabs (ver.1)

Satanic Surfers Tabs
Rating:
0/5 (0 votes)
Don	 Fade Away lessons Tabs too difficult? Try these video lessons and learn fast
                # intro #                                                                    >
G-----------------------53--------------------------------------------3------>
D-------------------------43---------------------------------------3-5--53--->
A---------------------------3-----------------3----------------01-3--------5->
E---3-----------------------------------------------1------------------------>
intro
-----------------------53-------------/5---3------------------3-35----------|
-------------------------43------------------5---3----------35-5--353-------|
---------------------------3---------------------------0-13----------53131--|
---3-----------------------------------------------1----------------------313
:
# into-verse #   *=play 6X   #=play 3X
G--------------------------|
D----------------#---------|
A---5-6--*------6---5-6----|
E------63--------------6---|
:
# verse # X2  *=play 6X %=pause
G-----------------------------------------------------------%----------|
D--------------------*-------*------------------------------%----------|
A----*-------*------6-------6--------*-------*-------*------%---88-8---|
E---3-------3-----------------------6-------6-------5-------%5-5-------|
:
# verse-part2 # X2 *=play 6X #=play 3X
G-------------------------------|
D------------#---------------*--|
A----*------6---5-6--*------1---|
E---3--------------61-----------|
:
# pre-chorus # *=play 5-6X #=play 3X h=hammer-on                    >
G--------------------------------------------------------1012------->
D----*---------------*---------------*-----------------------1210-8->
A---8---------------8--------------10--------------1010------------->
E------------------------------------------------------------------->
pre-chorus                                                         >
----*---------------*---------------*---------------*-------------->
---8---------------8--------------10--------------10--------------->
pre-chorus                                                          
---------810------h----h-------------------------------------------|
------810----1013-81012810-8-8-7-7--*-----------------*------------|
-----------------------------------8---------------6-8-------------|
---6---------------------------------------------------------------|
:
# chorus # *=play 6X                                                >
G--------------------------------------*------------------8--------->
D----*----------------------8-------810-------------810----10-8----->
A--10---------------810--10---10--8------------------------------10->
E------------------------------------------------------------------->
chorus                                                             >
----------------------------8-------*----------------------7-81010->
--------------------7-8-10----10-7-8---------------7-8---8--------->
---6-8-------6---8------------------------------------------------->
---------6-8------------------------------------------------------->
chorus                                                             >
--------------------------------------*------------------8--------->
----*----------------------8-------810-------------810----10-8----->
--10---------------810--10---10--8------------------------------10->
:
chorus
----------------------------8-------*----------------------7-8-7-8---|
--------------------7-8-10----10-7-8---------------7-8---8-----------|
---6-8-------6---8---------------------------------------------------|
---------6-8---------------------------------------------------------|
:
# bridge # *=play 6X #=play 3X                                      >
G---------------------------------------------------8-7------------->
D-------------------3/5-5-5-8-81010--#------5------------10-8-7----->
A-----------1-----------------------6---------6---6--------------10->
E---3-3---3---3-1-3------------------------------------------------->
bridge                                                             >
-----------810-10-81012-1210121414-------------------------6------->
----#------------------------------7-8---8-7-8---8-7-8---8---8-7-5->
---8--------------------------------------------------------------->
bridge                                                             >
-----5---5----3--5---5---5----3--5--*---------------*-------------->
-----------3-5-------------3-5-----6---------------6--------------->
---3---------------3----------------------------------------------->
bridge
-------------------8-10--7-8--7----------------------------6-----------|
----#------7--8-10--------------10-7-8---8-7-8---8-7-8---8---8-7-5-5---|
---8-------------------------------------------------------------------|
:
Then play into-verse, verseX2, verse-part2X2, pre-chorus and chorus.
:
# outro #
G---------------3-5-7\--|
D---5-----------1-3-5\--|
A-----------------------|
E-----------------------|
            

comments powered by Disqus
↑ Back to top | Satanic Surfers Bass for Don Fade Away. Lyrics for acoustic guitar and electric guitar. Tablatures and chords are parodies/interpretations of the original songs. You may use it for private study, scholarship, research or language learning purposes only