>
 >
Daily Routine

Daily Routine Guitar Tabs

Satanic Surfers - Daily Routine chords, tabs, tablatures, lyrics

Guitar lessons | Add/correct | Request | Top 50 tabs Artists:  A B C D E F G H I J K L M N O P Q R S T U V W X Y Z 0-9

Daily Routine Guitar Tabs – Satanic Surfers

CD, Sheet music, Poster

Do you like Daily Routine? Share with your friends now
Tabs
-------------------------------------------------------------------------------
-------------------------------------------------------------------------------

Tuning:normal

intro 

guitar 1 :
e|-------------------------------------|
B|-------------------------------------|
G|-------------------------------------|
D|77-77-1111-77--------------X2--------|
A|55-44-9-9--55------------------------|
E|-------------------------------------|

riff  1

guitar 1 :
e|--------(2)(4)--------------------|
B|---------3--5--7------------------|
G|-6-7-6---4--6--7--X2-9~--9--------|
D|-x-x-x---4--6--7-----9~--7--------|
A|-7-7-7---2--4--5-----7~--7--------|
E|-5-5-5----------------------------|
guitar 2 :
e|----------------------------------|
B|----------------------------------|
G|----------X2----------------------|
D|-7-4-6-7-------0~--0--------------|
A|-7-2-4-5-------0~--0--------------|
E|-5-------------2~--2--------------|


riff2

guitar 1
               this part a couple of times
                         \/
e|---------------|------------------|-------------------------------------------|
B|---------------|-12--X3--10--x7---|-------------------------------------------|
G|---6---7---X2--|-9-------9--------|-------------------------------------------|
D|-7-6-9-7-------|------------------|--77777-9-6-7-9-11~--77-777-777-77~--------|
A|-7-4-9-5-------|------------------|--55555-7-4-7-9-9-~--55-555-555-55~--------|
E|-5---7---------|------------------|------------5-7----------------------------|

gutiar2:

e|---------------|-------------------|-------------------------------------------|
B|---------------|-------------------|-------------------------------------------|
G|---6---7---X2--|-------------------|-------------------------------------------|
D|-7-6-9-7-------|-2-4-7-9-11-9------|--77777-9-6-7-9-11~--77-777-777-77~--------|
A|-7-4-9-5-------|-2-4-7-9-9--7------|--55555-7-4-7-9-9-~--55-555-555-55~--------|
E|-5---7---------|-0-2-5-7-----------|------------5-7----------------------------|


chorus

guitar1:

e|---------------------------------------|
B|---------------------------------------|
G|---------------------------------------|
D|-7-11-7---x2--4-2----------------------|
A|-7-9--5-------4-2----------------------|
E|-5------------2-0----------------------|

guitar2:

e|---------------------------------------|
B|---------------------------------------|
G|-7-6-----------------------------------|
D|-x-x-11-7--x2--4-2---7~----------------|
A|-7-7-9--5------4-2---7~----------------|
E|-5-5-----------2-0---5~----------------|


interlude 

guitar 1 :

e|--------------------------|
B|--------------------------|
G|-6-6----------------------|
D|-x-x----------------------|
A|-7-7----------------------|
E|-5-5----------------------|

guitar 2:

e|--------------------------|
B|--------------------------|
G|--------------------------|
D|-7-7----------------------|
A|-7-7----------------------|
E|-5-5----------------------|

Fin

guitar 1 :

e|-------------------------|
B|-------------------------|
G|-6~----------------------|
D|-x~----------------------|
A|-7~----------------------|
E|-5~----------------------|

guitar 2:

e|-------------------------|
B|-------------------------|
G|-------------------------|
D|-7~----------------------|
A|-7~----------------------|
E|-5~----------------------|



=========================

structure :

(0:00):intro
(0:08):riff 1
(0:17):riff 2
(0:38):chorus
(0:51):riff 1
(1:00):riff 2
(1:20):interlude
(1:34):refrain
(1:47):fin





Comments


Popular Satanic Surfers tabs & chords
Armless Skater Bass Tabs
Arthead 1 Bass Tabs
End Of The World 1 Bass Tabs
Sunshiny Day Bass Tabs
...And The Cheese Fell Down Tabs
4 A.M Tabs
Better Off Today Tabs
Callousness Tabs
The Sing Along Summer Song Tabs
You Can Count Your Money In Your Graves, You Filthy Bastards 1 Tabs


Song lyrics



↑ Back to top | Tablatures and chords are parodies/interpretations of the original songs. You may use it for private study, scholarship, research or language learning purposes only
© 2014 AZChords.com Contact us | Privacy policy | DMCA | Add/correct tabs | Request tabs | Top 50 tabs