>
 >
Count Me Out

Count Me Out Bass Tabs

Satanic Surfers - Count Me Out chords, tabs, tablatures, lyrics

Guitar lessons | Add/correct | Request | Top 50 tabs Artists:  A B C D E F G H I J K L M N O P Q R S T U V W X Y Z 0-9

Count Me Out Bass Tabs – Satanic Surfers

CD, Sheet music, Poster

Do you like Count Me Out? Share with your friends now
Bass Tabs
# intro # *=play 6X
G-----------------------------------------------------------|
D----*-------*-------*-------*-------*-------*------3-2-0-2-|
A---8-------8------10------10-------1-------3---------------|
E-----------------------------------------------------------|
:
# verse # *=play 6X #=play 3-4X                                     >
G------------------------------------------------------------------3>
D----------------012-*-------*---------------------8---------#--355->
A----*-------#--3---3-------3------------578-----57--*------3------->
E---1-------1-----------------------66-66---66-66---3--------------->
verse
----------------012-*-------*-------------------------------#---#--|
----*-------#--3---3-------3------------578-----578-*------3--/6---|
---1-------1-----------------------66-66---66-66---3---------------|
:
# pre-chorus # *=play 6X                                            >
G------------------------------------------------------------------->
D------------------------------------*-------*-------*-------*------>
A----*-------*-------*-------*------1-------1-------3-------3------->
E---1-------1-------3-------3--------------------------------------->
pre-chorus h=hammer-on
----7--hh-5----7--hh-5----7--hh-5----7--hh-5----*-------*--------------|
---0--0567--7-0--0567--7-0--0567--7-0--0567--7-5-------5-------3-------|
:
# chorus # %=pause *=play 5X +=play 9-12X
G--|%------|3X|---------|--------------------------------|
D--|%-------"-"-----10--|---------+-------+-------+------|
A--|%"---*--1-0-1-1---31|-+------1-------3-------3-------|
E--|%1--3---------------|3-------------------------------|
:
# bridge # *=play 6X
G-------------------------------------------------------------------|
D----*-------*-------*-------*-------*-------*-------*-------*------|
A---8-------8------10------10-------1-------1-------3-------3-------|
E-------------------------------------------------------------------|
:
# solo # h=hammer-on  !same rhythm with pre-chorus!                 >
G------------------------------------------------------------------->
D-----3--------1--3---3--------1------5--------3------5--------3---->
A---------1h2h3-----------1h2h3---3-------3h4h5---5-------3h4h5---5->
E---1----1----------1----1----------3----3----------3----3---------->
solo                                                               >
---------------------------------------------------8-8------------->
-----8--------6--810--8--6-8--------10-----h--8-10----10-81010--10->
---------6h7h8----------------8--6-------8h910--------------------->
---6----6--------------------------8----8-------------------------->
solo                                                               >
-----3--------1------3--------1------5--------3------5--------3---->
---------1h2h3---3-------1h2h3---3-------3h4h5---5-------3h4h5---5->
---1----1----------1----1----------3----3----------3----3---------->
solo                                                                
---------------------------------------------------8-10--8---------|
-----8--------6--810--8--6-8--6--5--10-----h--8-10---------10-8----|
---------6h7h8---------------------------8h910------------------10\|
---6----6--------------------------8----8--------------------------|
:
# verse2 # *=play 6X #=play 3-4X                                    >
G------------------------------------------------------------------->
D----------------012-*-------*-------------------------------*------>
A----*-------*--3---3-------3------------578-----578-*------3------->
E---1-------1-----------------------66-66---66-66---3--------------->
verse2
----------------012-*-------*---------------------8---------#--355-|
----*-------*--3---3-------3------------578-----57--*------3-------|
---1-------1-----------------------66-66---66-66---3---------------|
:
Then play pre-chorus and chorus (!without last note - 2nd last only 6X - end
with A---5---|!)
:
# outro # *=play 8X                                                 >
G------------------------------------------------------------------->
D----*-------*-------*------------57-------------------------------->
A---5-------5-------3-------333333---*---------------*-------*------>
E-----------------------------------6-------566656553-------3------->
outro                                                              >
----*-------*-------*------------57-------------------------------->
---5-------5-------3-------333333---*-------*-------*-------------->
-----------------------------------6-------6-------3-------55553355>
outro                                                              >
----*-------*-------*------------57-------------------------------->
---5-------5-------3-------333333---*-------*-------*-------*------>
-----------------------------------6-------6-------3-------3------->
outro
----*-------*-------*------------57-------------------------222335-|
---5-------5-------3-------333333---*-----------------555000-------|
-----------------------------------6-------56665655333-------------|





Comments


Popular Satanic Surfers tabs & chords
Armless Skater Bass Tabs
Head Under Water Bass Tabs
Lost Bass Tabs
Evil Tabs
Ketty Tabs
Lean On To You Tabs
Seed Of Fear And Anger 1 Tabs
Sunshiny Day Tabs
Think Positive Tabs
Egocentric Ukulele


Song lyrics



↑ Back to top | Tablatures and chords are parodies/interpretations of the original songs. You may use it for private study, scholarship, research or language learning purposes only
© 2014 AZChords.com Contact us | Privacy policy | DMCA | Add/correct tabs | Request tabs | Top 50 tabs