>
 >
Callousness

Callousness Guitar Tabs

Satanic Surfers - Callousness chords, tabs, tablatures, lyrics

Guitar lessons | Add/correct | Request | Top 50 tabs Artists:  A B C D E F G H I J K L M N O P Q R S T U V W X Y Z 0-9

Callousness Guitar Tabs – Satanic Surfers

CD, Sheet music, Poster

Do you like Callousness? Share with your friends now
Tabs
ALBUM:TASTE THE POISON

     .= Pm

E----------------------------------------------------------------------------------------------]
B----------------------------------------------------------------------------------------------]
G---5-5-5--------------------------------------------------------------------------------------]
D---5-5-5-LET RING-----------------------------------------------------------------------------]
A---3-3-3--------------------------------------------------------------------------------------]
E---.-.----------------------------------------------------------------------------------------]

 INTRO GUITAR A

E----------------------------------------------------------------------------------------------]
B----------------------------------------------------------------------------------------------]
G---5-5--3--5-5--5-3-3--3-8-10-8---5-5--3--5-5--10-8-7-3-7/8-7---7/8/7-------------------------]
D---5-5--3--5-5--5-3-3--3-8-10-8---5-5--3--5-5---/-/-/-/-/-/-/---/-/-/---LET RING--------------]
A---3-3--1--3-3--3-1-1--1-6--8-6---3-3--1--3-3---8-6-5-1-5/6/5---5/6/5-------------------------]
E----------------------------------------------------------------------------------------------]

 INTRO GUITAR B

E----------------------------------------------------------------------------------------------]
B----------------------------------------------------------------------------------------------]
G---5-5--3--5-5--5-3-3--3-8-10-8---5-5--3--5-5--5-3-3-3----------------------------------------]
D---5-5--3--5-5--5-3-3--3-8-10-8---5-5--3--5-5--5-3-3-3--6-6-6-6-6-6-8-8-8-8-8-8---------------]
A---3-3--1--3-3--3-1-1--1-6--8-6---3-3--1--3-3--3-1-1-1--6-6-6-6-6-6-8-8-8-8-8-8---------------]
E--------------------------------------------------------4-4-4-4-4-4-6-6-6-6-6-6---------------]

VERSE A-B X2                          GUITAR B END WITH        GUITAR A END WITH LR=LET RING

E-------------------------------I--------------------------I-----------------------------------]
B-------------------------------I--------------------------I-----------------------------------]
G---5-5-5--8-8-8--3-3-3---------I-----5-5-5----------------I------5-7----------------5-7-------]
D---5-5-5--8-8-8--3-3-3---3-3---I-----5-5-5--6-6-6--8-8-8--I--5-8-----8-5-8-LR---5-8-----8-5-LR]
A---3-3-3--6-6-6--1-1-1---3-3---I-----3-3-3--6-6-6--8-8-8--I-----------------------------------]
E-------------------------1-1---I------------4-4-4--6-6-6--I-----------------------------------]

PRE CHORUS A-B

E----------------------------------------------------------------------------------------------]
B----------------------------------------------------------------------------------------------]
G--8-8-8-7-7-7--3------------------------------------------------------------------------------]
D--8-8-8-7-7-7--3--LR--------------------------------------------------------------------------]
A--6-6-6-5-5-5--1------------------------------------------------------------------------------]
E----.-.---.-.---------------------------------------------------------------------------------]

CHORUS A X2							END WITH

E-----------------------------------------------------------I----------------------------------]
B-----------------------------------------------------------I----------------------------------]
G---5-5-5-3-3-3---------------5-7-7-8-8-10-10--12-12-12-10--I----------------------------------]
D---5-5-5-3-3-3-3-3-3-6-6-6---/-/-/-/-/--/--/---/--/--/--/--I---6----6-6-6-6-6--3--------------]
A---3-3-3-1-1-1-3-3-3-6-6-6---3-5-5-6-6--8--8--10-10-10--8--I---6----6-6-6-6-6--3--------------]
E---------------1-1-1-4-4-4---------------------------------I---4-LR-4-4-4-4-4--1--LR----------]
								     . . . . 

CHORUS B X2							END WITH

E-----------------------------------------------------------I----------------------------------]
B-----------------------------------------------------------I----------------------------------]
G---5-5-5-3-3-3---------------5-5-5-------8-8-8-------------I----------------------------------]
D---5-5-5-3-3-3-3-3-3-6-6-6---5-5-5-6-6-6-8-8-8-8-8-8-------I---6----6-6-6-6-6--3--------------]
A---3-3-3-1-1-1-3-3-3-6-6-6---3-3-3-6-6-6-6-6-6-8-8-8-------I---6----6-6-6-6-6--3--------------]
E---------------1-1-1-4-4-4---------4-4-4-------6-6-6-------I---4-LR-4-4-4-4-4--1--LR----------]
								     . . . . 

INTRO X1

VERSE X2
 
PRE CHORUS

CHORUS X2


INTERLOOOODE GUITAR A-B X5        GUITAR A END WITH                 GUITAR B END WITH

E-----------------------I---------------------------------I------------------------------------]
B-----------------------I---------------------------------I------------------------------------]
G---8-10-7--------------I-8-8-8-10-10-10-7-7-7------------I------------------------------------]
D---8-10-7-8-5-8-10-----I----------------------8----8-----I--10------6-6-6-6-6--8-8-8-8-8------]
A---6--8-5-8-5-8-10-----I------------------------10---10--I--10-Pm---6-6-6-6-6--8-8-8-8-8------]
E----------6-3-6--8-----I---------------------------------I---8------4-4-4-4-4--6-6-6-6-6------]

                                  GUITAR A END WITH                 GUITAR B END WITH

E-----------------------I---------------------------------I------------------------------------]
B-----------------------I---------------------------------I------------------------------------]
G---8-10-7--------------I-8-8-8-10-10-10-7-7-7------------I-------7----------------------------]
D---8-10-7-8-5-8-10-----I----------------------8----8-----I--8-10---8--------------------------]
A---6--8-5-8-5-8-10-----I------------------------10---10--I-----------10/13/10-----------------]
E----------6-3-6--8-----I---------------------------------I------------------------------------]

OUTRO

E----------------------------------------------------------------------------------------------]
B----------------------------------------------------------------------------------------------]
G----------------------------------------------------------------------------------------------]
D--6-6-6-6-6-6-6-6---8-8---8-8--10-------------------------------------------------------------]
A--6-6-6-6-6-6-6-6---8-8---8-8--10--------LET RING---------------------------------------------]
E--4-4-4-4-4-4-4-4---6-6---6-6---8-------------------------------------------------------------]

mail me....





Comments


Popular Satanic Surfers tabs & chords
Arthead Bass Tabs
Before It's Too Late Bass Tabs
Hero Of Our Time Bass Tabs
Miss Bigmouth Bass Tabs
Sunshiny Day 1 Bass Tabs
Good Morning Chords
Sunshiny Day Chords
Seed Of Fear And Anger Tabs
Soothing Tabs
Good Morning Ukulele


Song lyrics



↑ Back to top | Tablatures and chords are parodies/interpretations of the original songs. You may use it for private study, scholarship, research or language learning purposes only
© 2014 AZChords.com Contact us | Privacy policy | DMCA | Add/correct tabs | Request tabs | Top 50 tabs