» » »

Satanic Surfers, Before It's Too Late Bass tabs (ver.1)

Artists:  A B C D E F G H I J K L M N O P Q R S T U V W X Y Z # 

Before It's Too Late Bass tabs (ver.1)

Satanic Surfers Tabs
Rating:
0/5 (0 votes)
Before It's Too Late lessons Tabs too difficult? Try these video lessons and learn fast
                # into-intro # h=hammer-on                          
G-----------797979799-7-----|                      
D------------h-h-h-h----9-7-|                      
A---7-----------------------|
E---------------------------|
:
# intro # X1.875 (2nd time end to |)  p=pull-off                                         >
G----------------------6-4-----7-6-----------------------4--|----5--|
D-------------------------76------97------------------46--64--57--75|
A------7-5----------4-----p-5-----p----7-5----------4-----p-5-----p-|
E---0------5-2--2-2-----------------0------5-2--2-2-----------------|
:
# verse # *=play 6X h=hammer-on p=pull-off                          >
G---------------------------2---2---------------------------2---2--->
D----*-------------------2-4-424-424-*-------------------2-4-424-424>
A---0-------00-025-0----4----ph--ph-0-------00-025-0----4----ph--ph->
E-------------------22-2----------------------------22-2------------>
verse
---hh-hh---/--/--------------99976-|
---0670670-67067076-*------9-------|
-------------------7---------------|
-----------------------------------|
:
# verse-part2 # *=play 6X h=hammer-on p=pull-off                    >
G-----------------------------------------------------------2---2--->
D----*-------------------------------*-------------------2-4-424-424>
A---0-------00-025-0-*-------*------0-------00-025-0----4----ph--ph->
E-------------------2-------2-----------------------22-2------------>
verse-part2
---hh-hh------/--------------99976----------------------9----------|
---0670670---067076-*------9---------------------------------------|
-------------------7---------------5---------5-4-5-7-77---7--------|
:
# chorus # *=play 5-6X                                              >
G------------------------------------------------------------------->
D--------------------*---------------*---------------*-------------->
A----*--------------0---------------2---------------5-------------7->
E---2--------------------------------------------------------------->
chorus                                                              
--------------h-p------------h-p-------------h-p-----11-1314-13-11\|
-----8-911-9-8-9-8--11121412111211--1314161413141312---------------|
---9--------------12--------------14-------------------------------|
:
# end-chorus # *=play 5-6X %=pause
G----------%-------%-----------------------%-*-----%-*--------------|
D----------%-*-----%-*-------*-------*-----%7------%9------12------\|
A----*-----%0------%2-------5-------9------%-------%----------------|
E---2------%-------%-----------------------%-------%----------------|
:
# bridge # *=play 6X h=hammer-on p=pull-off                         >
G------------------------------------------------------------------->
D----*-------------------------------*------------------------------>
A---0-------00-025-0-*-------*------0-------00-025-0-*-------*------>
E-------------------2-------2-----------------------2-------2------->
bridge
-----------------------------99976-|
----*-------*-------*------9-------|
---5-------5-------7---------------|
-----------------------------------|
:
# verse2 # *=play 6-8X h=hammer-on p=pull-off                       >
G------------------------------------------------------------------->
D----*-------------------------------*------------------------------>
A---0-------00-025-0-*-------*------0-------00-025-0-*-------*------>
E-------------------2-------2-----------------------2-------2------->
verse2
---hh-hh---/--/--------------99976----------------------9----------|
---0670670-67067076-*------9---------------------------------------|
-------------------7---------------5---------5-4-5-7-77---7--------|
:
Then play chorus.
:
# end-chorus2 # *=play 4-6X %=pause                                 >
G----------%-------%-------------%%%---------*-------*-------*------>
D----------%-*-----%-*-------*---%%%-*------7-------9------12------\>
A----*-----%0------%2-------5----%%%9------------------------------->
E---2------%-------%-------------%%%-------------------------------->
end-chorus2
-----------------------------%%%%%%|
------------*-------*--------%%%%%%|
----*------0-------2-------5-%%%%%%|
---2-------------------------%%%%%%|
            

comments powered by Disqus
↑ Back to top | Satanic Surfers Bass for Before It's Too Late. Lyrics for acoustic guitar and electric guitar. Tablatures and chords are parodies/interpretations of the original songs. You may use it for private study, scholarship, research or language learning purposes only