>
 >
Arthead

Arthead Bass Tabs

Satanic Surfers - Arthead chords, tabs, tablatures, lyrics

Guitar lessons | Add/correct | Request | Top 50 tabs Artists:  A B C D E F G H I J K L M N O P Q R S T U V W X Y Z 0-9

Arthead Bass Tabs – Satanic Surfers

CD, Sheet music, Poster

Do you like Arthead? Share with your friends now
Bass TabsBass Tabs v2
Band:Satanic Surfers
Album:Keep Out 

  ok there are some parts that i'm not sure of,anyway the song should go 
   something like this...                                 
                           
intro  
G:------------------------------------------------
D:----12----------9-10h11\12----12----------------
A:-------10-10-12------------------10-12-10-9-----
E:-10-------------------------10--------------12--

G:-----------------------
D:-----12----------------
A:--------10>-12-10-9---- X 2
E:-10>----------------12-
              |          not sure          |
G:------------|-12\14-12-11-14-16\18-16-14-|------------------------
D:-----12-----|----------------------------|-----12-----------------
A:--------10>-|----------------------------|--------10>-12-10-9-----
E:-10>--------|----------------------------|-10>----------------12--

riff 1
G:------------------------------------------------------
D:-----12-10-9--------12\14-12-11-----------------------
A:-------------12-----------------14-10>-10-8-7--------- X 2
E:-10>------------10>---------------------------10-7-5--

G:--------------------------------------------------------
D:-----9-12-10-9--------12\14-12-11-----------------------
A:---------------12-----------------14-10>-10-8-7---------
E:-10>--------------10>---------------------------10-7-5--
                                                                  
G:---------------------------------------12-10-9-----------
D:-----12-10-9--------12\14-12-11----------------12--9-----
A:-------------12-----------------14-10>---------------12--
E:-10>------------10>--------------------------------------

riff 2
G:----------------------------------------------------------
D:-------4-------4-5-7-\11-9-9-9----------------------------
A:-5-5-5---5-5-5-----------------------2-------------7-5-4--
E:-------------------------------3-3-3---3-3-3-7-5-4--------
                                                                  
G:---------------------------------------------------9-7-6-14-12--
D:-------4-------4-5-7-\11-9-9-9---------------9-7-6--------------
A:-5-5-5---5-5-5-----------------------2--------------------------
E:-------------------------------3-3-3---3-3-3--------------------

verse 1
G:-----------------------------
D:-----------------------------
A:-2>-5>----------2>-5>-------- X 2
E:-------5>-3>-5>-------5>-3>--
                                                                  
G:--------------|     |------
D:--------------|     |------
A:-2>-------5>--| X 2 |--0>--
E:----5>-3>-----|     |------

chorus
G:------------------------------
D:--------------------------5>--
A:-----5>-7-7--------5>-7-7----- X 2
E:-7-5--------3>-7-5------------
                                  
G:-----------------7-7-9-9-12-11-9----------------
D:---------7>-\9-9--------------------------------
A:-----5-5-----------------------------5>-7-7-----
E:-7-5-----------------------------7-5--------3>--

bridge
G:---------------------------------------
D:------------------------5-4------------
A:-0>--2-2-2------------------7-5-7-5-7--
E:-----------3-3-3-5-5-5-----------------

riff 3
G:-------------------------------------------
D:----7-6------3-2------5-4---5-4------------
A:--------9--------5--------7-----7-5-7-5-7-- 
E:-7>-------3>-------5>----------------------

riff 4
G:------------------------------------------------
D:-----------------------14-14-14-14-14-14-14-14--
A:--------7>-9>--------7--------------------------
E:-7>-10>-------7>-10>----------------------------

verse 2
G:--------------
D:--------------
A:-2>-5>-------- X 2
E:-------3>-5>--
  |               not sure                |
G:|---------------------------------------|
D:|-------------7-5-4---------------------|
A:|----6-7-9-5>----------2-3-5----7-5-4---| X 2
E:|-7>----------------3>-------5>---------|

riff 3 X2

riff 5
G:-----------------------------------------
D:------------------------5-4--------------
A:--------7>-9>--------7>-----7-5-7-5-7----
E:-7>-10>-------7>-10>------------------7--

outro
G:--------
D:--------
A:-5------
E:---5-7--





Comments


Popular Satanic Surfers tabs & chords
Equal Rights Bass Tabs
Miss Bigmouth Bass Tabs
Lost Chords
Truck Driving Punk Chords
4 A.M Tabs
Don't Skate On My Ramp Tabs
Killing Me Tabs
U Plus Ir1 Tabs
Whatever Tabs
Wishing You Were Here Tabs


Song lyrics



↑ Back to top | Tablatures and chords are parodies/interpretations of the original songs. You may use it for private study, scholarship, research or language learning purposes only
© 2014 AZChords.com Contact us | Privacy policy | DMCA | Add/correct tabs | Request tabs | Top 50 tabs