» » »

Satanic Surfers, Armless Skater Bass tabs (ver.1)

Artists:  A B C D E F G H I J K L M N O P Q R S T U V W X Y Z # 

Armless Skater Bass tabs (ver.1)

Satanic Surfers Tabs
 Rating:
4/5 (4 votes)
Armless Skater lessons Tabs too difficult? Try these video lessons and learn fast
1
                # intro #  *=play 7X
G----------|--------------2X---------------|----------------------------|
D----------|---------*-------*-------*-----|---------*-------*----------|
A----------|-*------2-------3-------5------|-*------2-------3-------5---|
E--10\-----|3------------------------------|3---------------------------|
:
# pre-verse #   %=pause
G--|-------------4X----------------|----%%%%------|
D--|-------------------------------|----%%%%------|
A--|--------------2-3--3--3---3-3-2|----%%%%------|
E--|3--3--3---0-0------------------|3-3-%%%%3-3---|
:
# verse #   *=play 6X   #=play second time 4X with pauses
G--|--------------2X---------------|------------2X--------------| 
D--|-----------------*-------*-----|---------*-------*-------*#-|   
A--|-*------2-02-0223-------5------|-*------5-------3-------3---|   
E--|3------------------------------|3---------------------------|
:
Then play intro (without first note).
:
# chorus #   *=play 6X                                          >
G--------------------------------------------------------------->
D------------------------------------*---------------*---------->
A----*---------------*--------------3---------------5----------->          
E---3---------------0------------------------------------------->
chorus
--------------------*------------------------------------------>
---------5---5-5-5-2----------------*---------------*---------->
-----------------------------------3---------------5----------->          
---3---3------------------------------------------------------->
chorus                                                             >
-------------------------7---7-----------5-----------7------------->  
---------5-----5-----------9---9875----------------------7\5---5--->  
-------------35--------------------3---3-----3-3-3-5---------7---7->  
---3---3-----------0---0------------------------------------------->  
chorus                                                             >
-------------------------7---7-----------5-----------7-5---5------->  
---------5-----5-----------9---9875----------------------7---7-5--->  
-------------35--------------------3---3-----3-3-3-5-------------7->  
---3---3-----------0---0------------------------------------------->  
chorus                                                         >
------------------------------------*---------------*---------->
----*---------------*--------------3---------------5----------->          
---3---------------0------------------------------------------->
chorus
--------------------*------------------------------------------>
---------5---5-5-5-2----------------*---------------*---------->
-----------------------------------3---------------5----------->          
---3---3------------------------------------------------------->
chorus                                                             >
-----------------------9-7---7-----------5-----------7-5---5------->  
---------5-----5-----------9---9875----------------------7---7-5--->  
-------------35--------------------3---3-----3-3-3-5-------------7->  
---3---3-----------0----------------------------------------------->  
chorus                                                          
-----------------------9-7---7-----------5---------------------| 
---------5-----5-----------9---9875----------------------------|  
-------------35--------------------3---3-----3-3-3-5-5-5-5-5---|  
---3---3-----------0-------------------------------------------|
:
# verse2-outro #  *=play 6X   #=play last time 4X with pauses
G--|--------------4X---------------|--------------------| 
D--|---------*-------*-------*-----|---------5-3--------|   
A--|-*------5-------3-------3------|----2/3/5----53-----|   
E--|3------------------------------|3---------------3---|
            
Submit corrections

comments powered by Disqus
↑ Back to top | Satanic Surfers Bass for Armless Skater. Lyrics for acoustic guitar and electric guitar. 1 Tablatures and chords are parodies/interpretations of the original songs. You may use it for private study, scholarship, research or language learning purposes only