>
 >
...And The Cheese Fell Down

...And The Cheese Fell Down Guitar Tabs

Satanic Surfers - ...And The Cheese Fell Down chords, tabs, tablatures, lyrics

Guitar lessons | Add/correct | Request | Top 50 tabs Artists:  A B C D E F G H I J K L M N O P Q R S T U V W X Y Z 0-9

...And The Cheese Fell Down Guitar Tabs – Satanic Surfers

CD, Sheet music, Poster

Do you like ...And The Cheese Fell Down? Share with your friends now
Bass TabsTabs
# intro #A&B   *=play 3-4X               # intro2 #A&B   #=play 5X palm-muted
E-----------------------------------|    E-----------------------------------|
B----*---*---------------*-------*--|    B----#---#---------------*-------*--|
G---4---4---7-6--*---*--9----*-11---|    G---4---4---7-6--*---*--9----*-11---|
D---4---4---7-6-5---2---9---4--11---|    D---4---4---7-6-5---2---9---4--11---|
A---2---2---5-4-5---2---7---4---9---|    A---2---2---5-4-5---2---7---4---9---|
E---------------3---0-------2-------|    E---------------3---0-------2-------|
:
# solo #A   v=vibrato                                                        >
E---------------------------------------------------------------------------->
B---------------------------------------------------------------------------->
G---------------------------------------------------------------------------->
D-----------7-9v----9-9/12--/16-16161412-------16-14-12-16-14-12-16-14----12->
A---------9-----------------------------14-----------------------------14---->
E---7------------------------------------------------------------------------>
# solo-bg #B   *=play 6X                                                     >
E-----------------------------------------------------------------------------|
B-----------------------------------------------------------------------------|
G---/----------PLAY--intro2A&BX2----------------------------------------------|
D-----------------------------------------------------------------------------|
A-----------------------------------------------------------------------------|
E-----------------------------------------------------------------------------|
>soloA
>-------------------------|
>-------------------------|
>-----------9-7-----------|
>---7-----------9-7-------|
>-------------------9-7---|
>-------------------------|
>solo-bgB
>-------------------------|
>-------------------------|
>----*------9-7-----------|
>---7-----------9-7-------|
>---7---------------9-7---|
>---5---------------------|
:
# verse #A
E----------------------------------------------------------------------------|
B----------------------------------------------------------------------------|
G----------------------------------------------------------------------------|
D-----------4-------------------------------4--------------------------------|
A---2---------------4-------4-------2---------------4-------4-------2-------4|
E----------------------------------------------------------------------------|
# verse #B      *=play 11X palm-muted
E----------------------------------------------------------------------------|
B----*-------*-----------------------*-------*-------------------------------|
G---4-------7--------*-------*------4-------7--------*-----------------------|
D---4-------7-------7-------4-------4-------7-------7-------4-------5-------7|
A---2-------5-------7-------4-------2-------5-------7-------4-------5-------7|
E-------------------5-------2-----------------------5-------2-------3-------5|
:
Then play A&BverseB (!play all notes 6X! (no palm-muting)).
:
# verse2 #A&B (So I...)  *=play 6X   #=play 3X
E-----------------------------------------------------------------------|
B----*-------#-----------------------*-------#--------------------------|
G---4-------7----#---*-------*------4-------7----#----------------------|
D---4-------7---7---4-------4-------4-------7---7---4-------5---7-\-----|
A---2-------5---7---4-------4-------2-------5---7---4-------5---7-\-----|
E---------------5---2-------2-------------------5---2-------3---5-\-----|
:
Then play A&Bintro2A&BX2.
>>>>>>>to next page...
...AND THE CHEESE FELL DOWN                                               2/3
:
# bridge #A&B   (I'll be there to catch...) !play all notes 12X!
E-----------------------------------------------|
B-----------------------------------------------|
G-----------------------------------7-----------|
D---7-------5-------7-------5-------7-------7---|
A---7-------5-------7-------5-------5-------7---|
E---5-------3-------5-------3-------5-------5---|
:
# bridge2 #A  (I won't let you...) *=play 6X                                >
E--------------------------------------------------------------------------->
B--------------------------------------------------------------------------->
G----*-----------*---------------------------------------------------------->
D---9-----------7-----------0-2-0-5-4-0-0-----------0-2-0-5-4-0------------->
A---9-----------7-----------------------------------------------4----------->
E---7-----------5----------------------------------------------------------->
# bridge2 #B  (I won't let you...) *=play 6X                                >
E--------------------------------------------------------------------------->
B--------------------------------------------------------------------------->
G----*-----------*-----------------------*-----------------------*---------->
D---9-----------7-----------0-2-0-5-4-0-9-----------0-2-0-5-4-0-7----------->
A---9-----------7-----------------------9-----------------------7----------->
E---7-----------5-----------------------7-----------------------5----------->
>bridge2A                                                                    >
>--------------------------------------------------------------/------------->
>--------------------------------------------------------------|---PLAY------>
>----------------*-----------*-----------*-----------*---------|----FIRST---->
>---0-2-0-5-4-0-9-----------7-----------5-----------4----------|-----LINE---->
>---------------9-----------7-----------5-----------4----------|------OF----->
>---------------7-----------5-----------3-----------2----------|-------SOLOA->
>bridge2B                                                                    >
>---------------------------------------------------------------------------->
>---------------------------------------------------------------------------->
>----------------*-----------*-----------*-----------*-----------*----------*>
>---0-2-0-5-4-0-9-----------7-----------5-----------4-----------9-----------7>
>---------------9-----------7-----------5-----------4-----------9-----------7>
>---------------7-----------5-----------3-----------2-----------7-----------5>
>bridge2B
>---------------------------------------------------------------------|
>----------------------------------------------------------------|----|
>-------------------FIRST----------------------------------------|----|
>--------------------LINE----------------------------------------|----|
>---------------------OF-----------------------------------------|----|
>----------------------SOLOA-continues...------------------------|----|
>bridge2B
>-------------------------------------------------------------------|
>-------------------------------------------------------------------|
>----*-----------*-----------*-----------*-----------*--------------|
>---5-----------4-----------9-----------7-----------5-----------4---|
>---5-----------4-----------9-----------7-----------5-----------4---|
>---3-----------2-----------7-----------5-----------3-----------2---|
:
Then play A&BbridgeA&B.
>>>>>>>>to next page...
:
:
:
:
:
:
:
:
:
:
:
:
:
...AND THE CHEESE FELL DOWN                                               3/3
:
# outro #A
E-------------------------------------------------------------------|
B-------------------------------------------------------------------|
G-------------------------------------------------------------------|
D---9-----------7---------------------------------------------------|
A---9-----------7---------------------------------------------------|
E---7-----------5---------------------------------------------------|
# outro #B
E-------------------------------------------------------------------|
B-------------------------------------------------------------------|
G---------------------------------------------------9--11-----------|
D---9-----------7-----------------------------------9--11---7---9---|
A---9-----------7-----------------------------------7---9---7---9---|
E---7-----------5-------------------------------------------5---7---|
:





Comments


Popular Satanic Surfers tabs & chords
Head Under Water Bass Tabs
Sunshiny Day 1 Bass Tabs
Good Morning Chords
Before It's Too Late Tabs
Big Bad Wolf Tabs
Nun Tabs
Seed Of Fear Tabs
Soothing Tabs
The Treaty And The Bridge 1 Tabs
I Scream Ukulele


Song lyrics



↑ Back to top | Tablatures and chords are parodies/interpretations of the original songs. You may use it for private study, scholarship, research or language learning purposes only
© 2014 AZChords.com Contact us | Privacy policy | DMCA | Add/correct tabs | Request tabs | Top 50 tabs