>
 >
Lucky Day

Lucky Day Guitar Tabs

Sasha - Lucky Day chords, tabs, tablatures, lyrics

Guitar lessons | Add/correct | Request | Top 50 tabs Artists:  A B C D E F G H I J K L M N O P Q R S T U V W X Y Z 0-9

Lucky Day Guitar Tabs – Sasha

CD, Sheet music, Poster

Do you like Lucky Day? Share with your friends now
Bass TabsChordsChords v2TabsUkulele
                                            Lucky Day                                               


                                                                                               Sasha
Zupfgitarre (Capo 3)



     E  S E  E.  E  S E  E.     E  S E  E.  E  S E  E.     E  S E  E.  E  S E  E.   
E||--------------------------|--------------------------|--------------------------|
B||-------0-----------0------|-------1------------------|-------0-----------0------|
G||----------0-----------0---|----------0--------2------|----------0-----------0---|
D||--2--L--------2--L--------|--2--L----------------1---|--2--L--------2--L--------|
A||--------------------------|--------------2--L--------|--------------------------|
E||--------------------------|--------------------------|--------------------------|


  E  S E  E.  E  S E  E.     E  S E  E.  E  S E  E.     E  S E  E.  E  S E  E.   
--------------------------|--------------------------|--------------------------|
-------1------------------|-------0-----------0------|-------0-----------0------|
----------0--------2------|----------0-----------0---|----------0-----------0---|
--2--L----------------1---|--2--L--------2--L--------|--2--L--------2--L--------|
--------------2--L--------|--------------------------|--------------------------|
--------------------------|--------------------------|--------------------------|


  E  S E  E.  E  S E  E.     E  S E  E.  E  S E  E.     E  S E  E.  E  S E  E.   
--------------------------|--------------------------|--------------------------|
-------2-----------2------|-------1------------------|-------0-----------0------|
----------0-----------0---|----------0--------2------|----------0-----------0---|
--2--L--------2--L--------|--2--L----------------4---|--2--L--------2--L--------|
--------------------------|--------------2--L--------|--------------------------|
--------------------------|--------------------------|--------------------------|


  E  S E  E.  E  S E  E.     E  S E  E.  E  S E  E.     E  S E  E.  E  S E  E.   
--------------------------|--------------------------|--------------------------|
-------0-----------0------|--------------------------|--------------------------|
----------0-----------0---|-------2-----------2------|-------2-----------2------|
--2--L--------2--L--------|-----L----1-----------1---|-----L----1-----------1---|
--------------------------|--2-----------2--L--------|--2-----------2--L--------|
--------------------------|--------------------------|--------------------------|


  E  S E  E.  E  S E  E.     E  S E  E.  E  S E  E.     E  S E  E.  E  S E  E.   
--------------------------|--------------------------|--------------------------|
-------0-----------0------|-------0-----------0------|-------2-----------2------|
----------0-----------0---|----------0-----------0---|----------0-----------0---|
--2--L--------2--L--------|--2--L--------2--L--------|--2--L--------2--L--------|
--------------------------|--------------------------|--------------------------|
--------------------------|--------------------------|--------------------------|


  E  S E  E.  E  S E  E.     E  S E  E.  E  S E  E.     E  S E  E.  E  S E  E.   
--------------------------|--------------------------|--------------------------|
-------1------------------|-------0-----------0------|-------0-----------0------|
----------0--------2------|----------0-----------0---|----------0-----------0---|
--2--L----------------4---|--2--L--------2--L--------|--2--L--------2--L--------|
--------------2--L--------|--------------------------|--------------------------|
--------------------------|--------------------------|--------------------------|


  E  S E  E.  E  S E  E.     E  S E  E.  E  S E  E.     E  S E  E.  E  S E  E.   
--------------------------|--------------------------|--------------------------|
--------------------------|--------------------------|-------3-----------3------|
-------2-----------2------|-------2-----------2------|----------4-----------4---|
-----L----1-----------1---|-----L----1---0-------4---|-----L--------------------|
--2-----------2--L--------|--2--------------L--------|-----------------L--------|
--------------------------|--------------------------|--3-----------3-----------|


  E  S E  E.  E  S E  E.     E  S E  E.  E  S E  E.     E  S E  E.  E  S E  E.   
--------------------------|-------0-----------0------|--------------------------|
-------4-----------4------|----------0-----------0---|-------5-----------5------|
----------4-----------4---|--------------------------|----------5-----------5---|
-----L--------------------|-----L--------------------|-----L-----------L--------|
--2-----------2--L--------|-----------------L--------|--3-----------3-----------|
--------------------------|--0-----------0-----------|--------------------------|


  E  S E  E.  E  S E  E.     E  S E  E.  E  S E  E.     E  S E  E.  E  S E  E.   
--------------------------|--------------------------|-------0-----------0------|
-------3-----------3------|-------4-----------4------|----------0-----------0---|
----------4-----------4---|----------4-----------4---|--------------------------|
-----L--------------------|-----L--------------------|-----L--------------------|
-----------------L--------|--2-----------2--L--------|-----------------L--------|
--3-----------3-----------|--------------------------|--0-----------0-----------|


  E  S E  E.  E  Q    E     E  S E  E.  E  S E  E.     E  S E  E.  E  S E  E.   
-------------------------|--------------------------|--------------------------|
-------5------4----------|-------0-----------0------|-------1------------------|
----------5--------------|----------0-----------0---|----------0--------2------|
-----L-------------------|--2--L--------2--L--------|--2--L----------------1---|
--3----------------------|--------------------------|--------------2--L--------|
-------------------------|--------------------------|--------------------------|


  E  S E  E.  E  S E  E.     E  S E  E.  E  Q    E     E  S E  E.  E  S E  E.   
--------------------------|-------------------------|--------------------------|
-------0-----------0------|-------1-----------------|-------0-----------0------|
----------0-----------0---|----------0--------------|----------0-----------0---|
--2--L--------2--L--------|--2--L-------------------|--2--L--------2--L--------|
--------------------------|--------------2----------|--------------------------|
--------------------------|-------------------------|--------------------------|


  E  S E  E.  E  S E  E.     E  S E  E.  E  S E  E.     E  S E  E.  E  S E  E.   
--------------------------|--------------------------|--------------------------|
-------0-----------0------|-------2-----------2------|-------1------------------|
----------0-----------0---|----------0-----------0---|----------0--------2------|
--2--L--------2--L--------|--2--L--------2--L--------|--2--L----------------4---|
--------------------------|--------------------------|--------------2--L--------|
--------------------------|--------------------------|--------------------------|


  E  S E  E.  E  S E  E.     E  S E  E.  E  S E  E.     E  S E  E.  E  S E  E.   
--------------------------|--------------------------|--------------------------|
-------0-----------0------|-------0-----------0------|--------------------------|
----------0-----------0---|----------0-----------0---|-------2-----------2------|
--2--L--------2--L--------|--2--L--------2--L--------|-----L----1-----------1---|
--------------------------|--------------------------|--2-----------2--L--------|
--------------------------|--------------------------|--------------------------|


  E  S E  E.  E  S E  E.     E  S E  E.  E  S E  E.     E  S E  E.  E  S E  E.   
--------------------------|--------------------------|--------------------------|
--------------------------|-------3-----------3------|-------4-----------4------|
-------2-----------2------|----------4-----------4---|----------4-----------4---|
-----L----1---0-------4---|-----L--------------------|-----L--------------------|
--2--------------L--------|-----------------L--------|--2-----------2--L--------|
--------------------------|--3-----------3-----------|--------------------------|


  E  S E  E.  E  S E  E.     E  S E  E.  E  S E  E.     E  S E  E.  E  S E  E.   
-------0-----------0------|--------------------------|--------------------------|
----------0-----------0---|-------5-----------5------|-------3-----------3------|
--------------------------|----------5-----------5---|----------4-----------4---|
-----L--------------------|-----L-----------L--------|-----L--------------------|
-----------------L--------|--3-----------3-----------|-----------------L--------|
--0-----------0-----------|--------------------------|--3-----------3-----------|


  E  S E  E.  E  S E  E.     E  S E  E.  E  S E  E.     E  S E  E.  E  Q    E   
--------------------------|-------0-----------0------|-------------------------|
-------4-----------4------|----------0-----------0---|-------5------4----------|
----------4-----------4---|--------------------------|----------5--------------|
-----L--------------------|-----L--------------------|-----L-------------------|
--2-----------2--L--------|-----------------L--------|--3----------------------|
--------------------------|--0-----------0-----------|-------------------------|


  ^                     ^                                                                           
  Q    H        Q       Q    H        Q       E  E  E  Q    E  Q       X X E.  E  E.  E  E  E  S T  
--0----L--------L----|---------------------|-----------3------------|-----------------2------------|
--0----L--------L----|--2----L--------L----|----------------3-------|----------4---------4---------|
--0----L--------L----|--0----L--------L----|-----4------------------|------4------4----------------|
--2----L--------L----|--2----L--------L----|--5-----5---------------|----4-------------------------|
--2----L--------L----|--2----L--------L----|------------------------|--2---------------------------|
--0----L--------L----|---------------------|------------------------|------------------------------|


  E  S E  E.  E  S E  E.     E  S E  E.  E  Q    E     E  S E  E.  E  S E  E.                 
--------------------------|--------------0----------|--------------3-----------|------|------|
-------0-----------0------|-------2-----------------|-------3-----------3------|------|------|
----------0-----------0---|----------0--------------|----------4-----------4---|------|------|
--2--L--------2--L--------|--2--L-------------------|-----L-----------L--------|------|------|
--------------------------|-------------------------|--------------------------|------|------|
--------------------------|-------------------------|--3-----------------------|------|------|


         E  S E  E.  E  S E  E.     E  S E  E.  E  S E  E.     E  S E  E.  E  S E  E.   
------|--------------------------|--------------------------|-------0-----------0------|
------|-------3-----------3------|-------4-----------4------|----------0-----------0---|
------|----------4-----------4---|----------4-----------4---|--------------------------|
------|-----L--------------------|-----L--------------------|-----L--------------------|
------|-----------------L--------|--2-----------2--L--------|-----------------L--------|
------|--3-----------3-----------|--------------------------|--0-----------0-----------|


  E  S E  E.  E  S E  E.     E  S E  E.  E  S E  E.     E  S E  E.  E  S E  E.   
--------------------------|--------------------------|--------------------------|
-------5-----------5------|-------3-----------3------|-------4-----------4------|
----------5-----------5---|----------4-----------4---|----------4-----------4---|
-----L-----------L--------|-----L--------------------|-----L--------------------|
--3-----------3-----------|-----------------L--------|--2-----------2--L--------|
--------------------------|--3-----------3-----------|--------------------------|


  E  S E  E.  E  S E  E.     E  S E  E.  E  S E  E.     E  S E  E.  E  S E  E.   
-------0-----------0------|--------------------------|--------------------------|
----------0-----------0---|-------5-----------5------|-------3-----------3------|
--------------------------|----------5-----------5---|----------4-----------4---|
-----L--------------------|-----L-----------L--------|-----L--------------------|
-----------------L--------|--3-----------3-----------|-----------------L--------|
--0-----------0-----------|--------------------------|--3-----------3-----------|


  E  S E  E.  E  S E  E.     E  S E  E.  E  S E  E.     E  S E  E.  E  S E  E.   
--------------------------|-------0-----------0------|--------------------------|
-------4-----------4------|----------0-----------0---|-------5-----------5------|
----------4-----------4---|--------------------------|----------5-----------5---|
-----L--------------------|-----L--------------------|-----L-----------L--------|
--2-----------2--L--------|-----------------L--------|--3-----------3-----------|
--------------------------|--0-----------0-----------|--------------------------|


  E  S E  E.  E  S E  E.     E  S E  E.  E  S E  E.     E  S E  E.  E  S E  E.   
--------------------------|--------------------------|-------0-----------0------|
-------3-----------3------|-------4-----------4------|----------0-----------0---|
----------4-----------4---|----------4-----------4---|--------------------------|
-----L--------------------|-----L--------------------|-----L--------------------|
-----------------L--------|--2-----------2--L--------|-----------------L--------|
--3-----------3-----------|--------------------------|--0-----------0-----------|


  E  S E  E.  E  Q    E     E  S E  E.  E  S E  E.     E  S E  E.  E  S E  E.   
-------------------------|--------------------------|--------------------------|
-------5------4----------|-------0-----------0------|-------1------------------|
----------5--------------|----------0-----------0---|----------0--------2------|
-----L-------------------|--2--L--------2--L--------|--2--L----------------1---|
--3----------------------|--------------------------|--------------2--L--------|
-------------------------|--------------------------|--------------------------|


  E  S E  E.  E  S E  E.     E  S E  E.  E  S E  E.     E  S E  E.  E  S E  E.   
--------------------------|--------------------------|--------------------------|
-------0-----------0------|-------1------------------|-------0-----------0------|
----------0-----------0---|----------0--------2------|----------0-----------0---|
--2--L--------2--L--------|--2--L----------------1---|--2--L--------2--L--------|
--------------------------|--------------2--L--------|--------------------------|
--------------------------|--------------------------|--------------------------|


                             ^                                                          
  E  S E  E.  E  S E  E.     W                                                          
--------------------------|--0----------------|-------------------|-------------------||
-------1------------------|--0----------------|-------------------|-------------------||
----------0--------2------|--0----------------|-------------------|-------------------||
--2--L----------------1---|--2----------------|-------------------|-------------------||
--------------2--L--------|--2----------------|-------------------|-------------------||
--------------------------|--0----------------|-------------------|-------------------||




Duration Legend
---------------
W - whole
H - half
Q - quarter
E - 8th
S - 16th
T - 32nd
X - 64th
. - note dotted
|-n-|  - n-tuplets


Tablature Legend
----------------
L - tied note
x - dead note
g - grace note
(n) - ghost note
> - accentuded note
NH - natural harmonic
AH - artificial harmonic
TH - tapped harmonic
SH - semi harmonic
PH - pitch harmonic
h - hammer on
p - pull off
b - bend
br - bendRelease
pb - preBend
pbr - preBendRelease
brb - bendReleaseBend
\n/ - tremolo bar dip
\n - tremolo bar dive
-/n - tremolo bar Release up
/n\ - tremolo bar inverted dip
/n - tremolo bar return
-\n - tremolo bar Release down
S - shift slide
s - legato slide
/ -  slide into from below or out of upwards
\ -  slide into from above or out of downwards
~ - vibrato
W - wide vibrato
tr - trill
TP - tremolo picking
T - tapping
S - slap
P - pop
< - fade in
^ - brush up
v - brush down





Comments


Popular Sasha tabs & chords
I Feel Lonely Chords
If You Believe Chords
If You Believe 1 Chords
Lucky Day Chords
Owner Of My Heart Chords
Slowly Chords
This Is My Time Chords
Turn It Into Something Special Chords
Hide And Seek Intro Tabs
I Feel Lonely Ukulele


Song lyrics



↑ Back to top | Tablatures and chords are parodies/interpretations of the original songs. You may use it for private study, scholarship, research or language learning purposes only
© 2014 AZChords.com Contact us | Privacy policy | DMCA | Add/correct tabs | Request tabs | Top 50 tabs