» » »

Goodbye Tabs (ver.1)

Artists:  A B C D E F G H I J K L M N O P Q R S T U V W X Y Z # 

Goodbye Tabs (ver.1)

Sasha
Rating:
0/5 (0 votes)

Hard to play? Try these video lessons and learn fast.
                ---------------------------------------------------------------------------
---------------------------------------------------------------------------

   Verse/Refrain  
e|----2-------0-------2-------2-----|
B|----4-------0-------4-------2-----|
G|----4-------1-------4-------3-----|
D|----4-------2-------2-------4-----|
A|----2-------2-------2-------4-----|
E|----2-------0-------0-------2-----|
   Bridge1
e|---2------2---|
B|---2------2---|
G|---4------3---|
D|---4------4---|
A|---2------4---|
E|---2------2---|
   Bridge2/Outro
e|---2------2-------0-------2-------2---|
B|---2------2-------0-------2-------2---|
G|---4------3-------1-------3-------3---|
D|---4------4-------2-------4-------4---|
A|---2------2-------2-------2-------4---|
E|---2------2-------0-------2-------2---|
   Bridge3
e|---2------0-------2-------0-------2---|
B|---4------0-------4-------0-------2---|
G|---4------1-------4-------1-------3---|
D|---4------2-------4-------2-------4---|
A|---2------2-------2-------2-------4---|
E|---0------0-------0-------0-------2---|
   Bridge4
e|---2------0-------2-------2---|
B|---4------0-------2-------2---|
G|---4------1-------4-------3---|
D|---4------2-------4-------4---|
A|---2------2-------2-------4---|
E|---0------0-------2-------2---|

The song works like this:

Verse  (4x)       Bridge2 (1x)

Bridge1(2x)       Refrain (3x) 

Refrain(4x)       Bridge3 (1x) 

Bridge2(1x)       Refrain (4x)    

Verse  (4x)       Outro   (1x)  

Bridge1(2x)

Refrain(4x)    

Bridge3(1x)

Bridge4(1x)

Refrain(3x)

The song is quite nice.
Have a lot of fun with it. When you don´t find the original version
of the song don´t be shy and contact me!


Juan89
            
Hard to play? Try these video lessons and learn fast. | Correct




comments powered by Disqus
↑ Back to top | Tablatures and chords are parodies/interpretations of the original songs. You may use it for private study, scholarship, research or language learning purposes only