» » »

Sash, Ecuador Tabs (ver.1)

Artists:  A B C D E F G H I J K L M N O P Q R S T U V W X Y Z # 

Ecuador Tabs (ver.1)

Sash Tabs
Rating:
4/5 (2 votes)
Ecuador lessons Tabs too difficult? Try these video lessons and learn fast
                Awesome Techno song by the artist Sash! that I always wondered how it would sound on the guitar.  
I couldn't find it anywhere so I made my own tab.  
It's as accurate as I can make it so sorry if there are any mistakes.

This song can be heard on the Riddler's Revenge Rollercoaster on Six Flags Magic Mountain.

Intro
e|---------------------------------------------------------|
b|--------5------5------5------5------5------5------5------|
g|---7-7----7-7----7-7----7-7----7-7----7-7----7-7----7-7--|
D|---------------------------------------------------------|
A|---------------------------------------------------------|
E|---------------------------------------------------------|

Chorus (Three Guitar Part)
  Gtr. I
e|------------------------------------------------|
b|------------------------------------------------|
g|----6-777-777-777-777-999-999-666---------------|
D|------------------------------------------------|
A|------------------------------------------------|
E|------------------------------------------------|
 |
 |Gtr. II
 |
e|------------------------------------------------|
b|------------------------------------------------|
g|-----------------------------101010-101010------|
D|-101010-101010-101010-101010-101010-101010-888--|
A|-101010-101010-101010-101010--8-8-8--8-8-8-888--|
E|--8-8-8--8-8-8--8-8-8--8-8-8---------------666--|
 |
 |Gtr. III
 |
e|---------------------------------------------------|
b|---------------------------------------------------|
g|-121212-121212-121212-121212-131313-131313-101010--|
D|-121212-121212-121212-121212-131313-131313-101010--|
A|-101010-101010-101010-101010-111111-111111--8-8-8--|
E|---------------------------------------------------|


Interlude ( Three Guitar Part)
  Gtr. I
|-----|--------------|----------------------------------------------|
|-----|-----5--------|-----5------------5-7-5---3--------5----------|
|-4---|-4-6---6--4---|-4-6---6---7----7-------6---4--4-6---6---4----|
|---4-|---------7--4-|---------7---7-------------------------7---4--|
|-----|--------------|----------------------------------------------|
|-----|--------------|----------------------------------------------|
|
| Gtr. II
|
|-------------------------------------------------------|
|--16-16-16--16-18-18-18--18-16-16-16--16-18-18-18--20--|
|-------------------------------------------------------|
|-------------------------------------------------------|
|-------------------------------------------------------|
|-------------------------------------------------------|
|
| Gtr. II(continued)
|
|-------------------------------------------------------|
|-16-16-16--16-18-18-18--18-16-16-16--16-15-15-15-------|
|-------------------------------------------------------|
|-------------------------------------------------------|
|-------------------------------------------------------|
|-------------------------------------------------------|
|
| Gtr. III
|
|--22-22-22--22-24-24-24--24-22-22-22--22-24-24-24--25--|
|-------------------------------------------------------|
|-------------------------------------------------------|
|-------------------------------------------------------|
|-------------------------------------------------------|
|-------------------------------------------------------|
|
| Gtr. III (continued)
|-22-22-22--22-24-24--24-22-22-22-22-21-21-21-----------|
|-------------------------------------------------------|
|-------------------------------------------------------|
|-------------------------------------------------------|
|-------------------------------------------------------|
|-------------------------------------------------------|
            
Submit corrections

comments powered by Disqus
↑ Back to top | Sash Tabs for Ecuador. Lyrics for acoustic guitar and electric guitar. Tablatures and chords are parodies/interpretations of the original songs. You may use it for private study, scholarship, research or language learning purposes only