» » »

Saron Gas, Senseless Tragedy Tabs (ver.1)

Artists:  A B C D E F G H I J K L M N O P Q R S T U V W X Y Z # 

Senseless Tragedy Tabs (ver.1)

Saron Gas Tabs
Rating:
4/5 (1 vote)
Senseless Tragedy lessons Tabs too difficult? Try these video lessons and learn fast
                By
Saron Gas
in
Standard Tuning

[Okay so I was kinda lazy and didn't get the timing down but if you listen to the song 
shouldn't be too hard to find out.]

Intro/Verse
| ---------------------------------------|
| ---------------------------------------|
| ---------------------------------------|
| ---------------------------------------|
| -9h10----10----12--10-10--9-9----------|
| -0-----0-----0--0----0--0---0-0--0-----|

Pre-Chorus
| ------------|
| ------------|
| ------------|
| ------------|
| -5-5--5h7---|
| -0-0--0-----|

Chorus
| -------------------|
| -0-----------0-----|
| -1------0----1-----|
| -2------0----2-----|
| -2-----------2-----|
| -0------3----0-----|


Bridge/Outro
| ----------------------|
| -1---0-------0---0----|
| -0---1---0---1---0----|
| -2---2---0---2---0----|
| -3---2-------2--------|
| -----0---3---0---3----|

Lyrics:

Look into my eyes and see my pain
Now that I lost what I thought I'd gained
Sourness and fear is all I taste
Now I understand what I had to waste
My love.

Look into the fires you left behind
Smoking ashes sear my mind
Unconcerned and in denial
Clip my wings, put me on trial
My love.

Now there's only me
God has made me weak
Now there's only me
Gone is apathy.

Look into my eyes and see my pain
Now that I lost what I thought I'd gained
Sourness and fear is all I taste
Now I understand what I had to waste
My love.

Now there's only me
God has made me weak
Now there's only me
Gone is apathy.

History's in the mind of the teller
The truth is in the tale...

History's in the mind of the teller
The truth is in the tale
In the tale
The truth is in the tale
The truth is in the tale.
            

comments powered by Disqus
↑ Back to top | Saron Gas Tabs for Senseless Tragedy. Lyrics for acoustic guitar and electric guitar. Tablatures and chords are parodies/interpretations of the original songs. You may use it for private study, scholarship, research or language learning purposes only