» » »

Empty Bass tabs (ver.1)

Artists:  A B C D E F G H I J K L M N O P Q R S T U V W X Y Z # 

Empty Bass tabs (ver.1)

Saron Gas
Rating:
0/5 (0 votes)

Hard to play? Try these video lessons and learn fast.
                
Wait till 0:09 then play this but start with the volume soft then slowly turn it up 
|-------------------------------------|
|-------------------------------------|
|-------------------------------------|
|0------------------------------------|

Verse
|----------------|
|----------------|
|----------------|x8
|0-------3---2---|

Chorus " TELL ME HOW TO SIT AROUND"
|----------------------------------|
|----------------------------------|
|5-5-5-5---------------------------|x6
|--------8-8-8-8-5-5-5-5-8-8-8-8---|

Verse
|----------------|
|----------------|
|----------------|x8
|0-------3---2---|

Chorus " TELL ME HOW TO SIT AROUND"
|----------------------------------|
|----------------------------------|
|5-5-5-5---------------------------|x6
|--------8-8-8-8-5-5-5-5-8-8-8-8---|

Interlude thingy " I cant be i can't be what you want"
|-------------------------------------|
|-------------------------------------|
|5---------------5-----------------5--|
|-------------------------------------|

'I CANT BE WHAT YOU WAAAAAAAAAAANT!!!
|-------------------------------------|
|-------------------------------------|
|5-5-5-5------------------------------|x4
|--------8-8-8-8-5-5-5-5-8-8-8-8------|

Chorus
|-------------------------------------|
|-------------------------------------|
|5-5-5-5------------------------------|x12
|--------8-8-8-8-5-5-5-5-8-8-8-8------|
            
Hard to play? Try these video lessons and learn fast. | Correct




comments powered by Disqus
↑ Back to top | Tablatures and chords are parodies/interpretations of the original songs. You may use it for private study, scholarship, research or language learning purposes only