>
 >
Love Has Taken Its Toll

Love Has Taken Its Toll Bass Tabs

Saraya - Love Has Taken Its Toll chords, tabs, tablatures, lyrics

Guitar lessons | Add/correct | Request | Top 50 tabs Artists:  A B C D E F G H I J K L M N O P Q R S T U V W X Y Z 0-9

Love Has Taken Its Toll Bass Tabs – Saraya

CD, Sheet music, Poster

Do you like Love Has Taken Its Toll? Share with your friends now
Bass TabsChordsTabsUkulele
-------------------------------------------------------------------------------
			     LOVE HAS TAKEN IT'S TOLL - Saraya
-------------------------------------------------------------------------------


Tuning: Standard



     Intro - m.6
     Q           E   S   S     S   E.   H.               W                    W
G||------------------------|--12h-14----L------------|---L----------------|---L----------------|
D||-----------------12h-14-|-------------------------|--------------------|--------------------|
A||------------------------|-------------------------|--------------------|--------------------|
E||------------------------|-------------------------|--------------------|--------------------|


   H           W                   E  E  E  E  E  E  E  E     E  E  E  E  E  E  E  E
---L--------|-------------------|--------------------------|--------------------------|
------------|-------------------|--------------------------|--------------------------|
------------|--0----------------|--0--0--0--0--0--0--0--0--|--0--0--0--0--0--0--0--0--|
------------|-------------------|--------------------------|--------------------------|


  E  E  E  E  E  E  E  S S    E  S S E  E  Q    E  E       E.  S E  E  E  E  E  E
---------------------------|--------------------------|----------------------------|
---------------------------|-----------------------4--|--4g5---4-L-----------------|
--0--0--0--0--0--0--0--0-2-|--3--3-2-L-----0----7-----|-------------3--0--0--0--0--|
---------------------------|------------3-------------|----------------------------|


  E  E  E  E  E  E  E  E     E  E  E  E  E  E  E  S  S    E  S S E  E  S E.  E  E
--------------------------|----------------------------|---------------------------|
--------------------------|----------------------------|---------------------------|
--0--0--0--0--0--0--0--0--|--0--0--0--0--0--0--0--0h-2-|--3--3-2----3--3-2---3--2--|
--------------------------|----------------------------|---------------------------|


                           Verse 1
  E  S S E  E  H           W                   H.           E   S   S     S  E.   H.
------------------------|-------------------|-------------------------|--12-14----L------------|
------------------------|-------------------|------------------12h-14-|------------------------|
--3--3-2-L-----0--------|--0----------------|--L------------L---------|------------------------|
------------3-----------|-------------------|-------------------------|------------------------|


   H.            E  E      W                   H.           E  E     H        H
---L-------------L------|-------------------|---------------------|--------------------|
------------------------|-------------------|---------------------|--------------------|
--------------------5b--|--0----------------|--L------------L-----|--------------------|
------------------------|-------------------|------------------1--|--1--------3--------|


  H.            Q        E  E  E  E  E  E  E  E     E  E  E  E  S S E  E  E
----------------------|--------------------------|---------------------------|
----------------------|--------------------------|---------------------------|
--0-------------------|--------------------------|----------------5----------|
---------------10\----|--0--0--0--0--0--0--0--0--|--0--0--0--0--0---0--0--0--|


                                                         Chorus 1
  E  E  E  E  E  E  E  E     E  E  S  S S  S H           E        E  E  E  E  E  E  E
--------------------------|---------------------------|--------------------------------|
--------------------------|---------------------------|--------------------------------|
--------------------------|-------------5h-7-5--------|--0--------0--0--0--0--0--0--0--|
--2--2--2--2--2--2--2--2--|--3--3--5s-7---------------|--------------------------------|


  E  E  E  E  E  E  E  E     E  E  E  E  E  E  E  S S    E  S S E  E  Q    E  S S
--------------------------|---------------------------|---------------------------|
--------------------------|---------------------------|-----------------------4-5-|
--0--0--0--0--0--0--0--0--|--0--0--0--0--0--0--0--0-2-|--3--3-2-L-----0----7------|
--------------------------|---------------------------|------------3--------------|


  E.  S E  E  E  E  E  E     E  E  E  E  E  E  E  E     E  E  E  E  E  E  E  S  S
--------------------------|--------------------------|----------------------------|
--5---4-L-----------------|--------------------------|----------------------------|
-----------3--0--0--0--0--|--0--0--0--0--0-----------|--------------5--5--5--0h-2-|
--------------------------|-----------------2--2--3--|--3--3--3--3----------------|


                                                       Verse 2
  E  S S E  E  S E.  E  E     E  S S E  E  H           W                   H.           
  S   S
---------------------------|------------------------|-------------------|-------------------------|
---------------------------|------------------------|-------------------|------------------12h-14-|
--3--3-2----3--3-2---3--2--|--3--3-2-L-----0--------|--0----------------|--L------------L---------|
---------------------------|------------3-----------|-------------------|-------------------------|


   S  E.   H.               W                   W                   H.           E  E
--12-14----L------------|---L----------------|-------------------|---------------------|
------------------------|--------------------|-------------------|---------------------|
------------------------|--------------------|--0----------------|--L------------L-----|
------------------------|--------------------|-------------------|------------------3--|


  H        H           H.           S S S S    E  E  E  E  E  E  E  E     E  E  E  E  E  E E  E
--------------------|-----------------------|--------------------------|--------------------------|
--------------------|-----------------------|--------------------------|--------------------------|
--------------------|--0------------5-3-2---|--------------------------|--------------------------|
--1--------3--------|---------------------5-|--0--0--0--0--0--0--0--0--|--0--0--0--0--0--0--L--0--|


                                                         Chorus 2
  E  E  E  E  E  E  E  E     E  E  S  S S  S H           E        E  E  E  E  E  E  E
--------------------------|---------------------------|--------------------------------|
--------------------------|---------------------------|--------------------------------|
--------------------------|-------------5h-7-5--------|--0--------0--0--0--0--0--0--0--|
--2--2--2--2--2--2--2--2--|--3--3--5s-7---------------|--------------------------------|


  E  E  E  E  E  E  E  E     E  E  E  E  E  E  E  S S    E  S S E  E  Q    E  E
--------------------------|---------------------------|--------------------------|
--------------------------|---------------------------|-----------------------4--|
--0--0--0--0--0--0--0--0--|--0--0--0--0--0--0--0--0-2-|--3--3-2-L-----0----7-----|
--------------------------|---------------------------|------------3-------------|


  E.  S E  E  E  E  E  E     E  E  E  E  E  E  E  E     E  E  E  E  E  E  E  S  S
--------------------------|--------------------------|----------------------------|
--5---4-L-----------------|--------------------------|----------------------------|
-----------3--0--0--0--0--|--0--0--0--0--0-----------|--------------5--5--5--0h-2-|
--------------------------|-----------------2--2--3--|--3--3--3--3----------------|


  E  S S E  E  S E.  E  E     E  S S E  E  H           E  S S E  E  S E.  E  E
---------------------------|------------------------|---------------------------|
---------------------------|------------------------|---------------------------|
--3--3-2----3--3-2---3--2--|--3--3-2-L-----0--------|--3--3-2----3--3-2---3--2--|
---------------------------|------------3-----------|---------------------------|


                                  Bridge
  S S S S E  S S S E.  S S S S    E      E  E  E  E  E  E  E     E  E  E  E  E  E  E  E
-------------------------------|------------------------------|--------------------------|
-------------3-2-------5-3-2---|------------------------------|--------------------------|
--3-2------------5-----------5-|--L------5--5--5--5--5--5--5--|--5--5--5--5--5--5--5--5--|
------5-1-L--------3-----------|------------------------------|--------------------------|


  E  E  E  E  E  E  E  E     E  E  E  E  E  E  E  S S    E  E  E  E  E  E  E  E
--------------------------|---------------------------|--------------------------|
--------------------------|---------------------------|--------------------------|
--2--2--2--2--2--2--2--2--|--3--3--3--3--3--3--3--3-5-|--L--5--5--5--5--5--5--5--|
--------------------------|---------------------------|--------------------------|


  E  E  E  E  E  E  E  E     E  E  E  E  E  E  E  E     E  E  E  E  E  E  E  E
--------------------------|--------------------------|--------------------------|
--------------------------|--------------------------|--------------------------|
--1--1--1--1--1--1--1--1--|--2--2--2--2--2-----------|--3--3--3--3--3--3--3--3--|
--------------------------|-----------------0--1--3--|--------------------------|


  E  E  E  E  E  E  E  E     E  E  E  E  E  E  E  E     E  E  E  E  E  E  E  E
--------------------------|--------------------------|--------------------------|
--------------------------|--------------------------|--------------------------|
--0--0--0--0--0--0--0-----|--------------------------|--0--0--0--0--0--0--0-----|
-----------------------1--|--1--1--1--1--1--1--1--1--|-----------------------0--|


                             Guitar Solo
  E  E  E  E  E  E  S E.     E           E  E  E  E  E  E  S S    E  E  E  E  E  E  E  S S
--------------------------|------------------------------------|---------------------------|
--------------------------|------------------------------------|---------------------------|
----------------------3---|--5-----------5--5--5--5--5--5--3-1-|--L--1--1--1--1--1--1----2-|
--1--1--1--1--1--1--1-----|------------------------------------|-----------------------3---|


  E  E  E  E  E  E  E   S S    E  E  E  E  E  E  E  E     E  E  E  E  E  E  E  S S
----------------------------|--------------------------|---------------------------|
----------------------------|--------------------------|---------------------------|
--L--2--2--2--2--2--2\--5-3-|--L--3--3--3--3--3--3--3--|-----------------------5-3-|
----------------------------|--------------------------|--0--0--0--0--0--0--0------|


  E  E  E  E  E  E  E  S S    E  E  E  E  E  E  E   S S    E  E  E  E  E  E    Q
---------------------------|----------------------------|----------------------------|
---------------------------|----------------------------|----------------------------|
--L--3--3--3--3--3--3--0-4-|--L--4--4--4--4--4--4\--0-5-|--L--5--5--5--5--5/--17\----|
---------------------------|----------------------------|----------------------------|


  E  S S E  E  S E.  E  E     E  S S E  E  Q    E  E     E  S S E  E  S E.  E  E
---------------------------|--------------------------|---------------------------|
---------------------------|--------------------------|---------------------------|
--3--3-2----3--3-2---3--2--|--3--3-2-L-----0----0--2--|--3--3-2----3--3-2---3--2--|
---------------------------|------------3-------------|---------------------------|


                                  Verse
  S S S S E  S S S E.  S S S S    W                   H.           E  E     H         H
-------------------------------|-------------------|---------------------|---------------------|
-------------3-2-------5-3-2---|-------------------|---------------------|---------------------|
--3-2------------5-----------0-|--L----------------|--L------------L-----|---------------------|
------5-1-L--------3-----------|-------------------|------------------0--|--1s--------3--------|


  H.           E  E      E  E  E  E  E  E  E  E     E  E  E  E  E  E  E  E
----------------------|--------------------------|--------------------------|
----------------------|--------------------------|--------------------------|
----------------------|--0--0--0--0--0--0--0--0--|--0--0--0--0--0--0--0-----|
--5------------5--L\--|--------------------------|-----------------------0--|


  E  E  E  E  E  E  E  E     S S S S E  E  E  E  S S S S    E  E  E  E  E  E  E  E
--------------------------|------------------------------|--------------------------|
--------------------------|------------------------------|--------------------------|
--------------------------|-------------------2--5-4-2---|--------------------------|
--1--1--1--1--3--3--3--3--|--5-5-5-5-5--5--5-----------5-|--0--0--0--0--0--0--0--0--|


  E  E  E  E  E  E  E  E     E  E  E  E  E  E  E  E     E  E  E  S S H
--------------------------|--------------------------|------------------------|
--------------------------|--------------------------|------------------------|
--------------------------|--------------------------|---------------5--------|
--0--0--0--0--0--0--0--0--|--2--2--2--2--2--2--2--2--|--3--3--3--3-3----------|


                             Chorus 3
  Q.     E    Q.      E      E        E  E  E  E  E  E  E     E  E  E  E  E  E  E  E
--------------------------|--------------------------------|--------------------------|
--------------------------|--------------------------------|--------------------------|
--L------Ls--17-------L\--|--0--------0--0--0--0--0--0--0--|--0--0--0--0--0--0--0-----|
--------------------------|--------------------------------|-----------------------0--|


  E  E  E  E  E  E  E  S S    E.  S E  E  Q    E  E     E.  S E  E  E  E  E  E
---------------------------|-------------------------|--------------------------|
---------------------------|----------------------4--|--5---4-L-----------------|
--------------5--5--5--0-2-|--3---2-L-----0----7-----|-----------3--0--0--0--0--|
--3--3--3--3---------------|-----------3-------------|--------------------------|


  E  E  E  E  E  E  E  E     E  E  E  E  E  E  E  S  S    E.  S E  E  E  E  E  E
--------------------------|----------------------------|--------------------------|
--------------------------|----------------------------|-----------------------4--|
--0--0--0--0--0-----------|--------------5--5--5--0h-2-|--3---2-L-----0--0--7-----|
-----------------2--2--3--|--3--3--3--3----------------|-----------3--------------|


  E.  S E  E  E  E  E  E     E  E  E  E  E  E  E  E     E  E  E  E  E  E  E  S S
--------------------------|--------------------------|---------------------------|
--5---4-L-----------------|--------------------------|---------------------------|
-----------3--0--0--0--0--|--0--0--0--0--0-----------|--------------5--5--5--0-2-|
--------------------------|-----------------2--2--3--|--3--3--3--3---------------|


  E.  S E  E  E  E  E  E     E.  S E  E  E  E  E  E     E  E  E  E  E  E  E  E
--------------------------|--------------------------|--------------------------|
-----------------------4--|--5---4-L-----------------|--------------------------|
--3---2-L-----0--0--7-----|-----------3--0--0--0--0--|--0--0--0--0--0-----------|
-----------3--------------|--------------------------|-----------------2--2--3--|


  E  E  E  E  E  E  E  S S    S S S S E  S S S E.  Q       S S S S E  S S S E.  Q
---------------------------|----------------------------|----------------------------|
---------------------------|----------------------------|----------------------------|
--------------5--5--5--0-2-|--3-3-3-2----3-3-3-2--------|--3-3-3-2----3-3-3-2--------|
--3--3--3--3---------------|----------------------------|----------------------------|


                                               Outro
  S S S S E  S S S E.  E  E     E.  S E  E     W                   W
-----------------------------|--------------|-------------------|-------------------|
-----------------------------|--------------|-------------------|-------------------|
--3-3-3-2----3-3-3-2---3--2--|--3---2-L-----|--0----------------|--L----------------|
-----------------------------|-----------3--|-------------------|-------------------|


  W                   W                   W                   W                   W
-------------------|-------------------|-------------------|-------------------|-----------------|
-------------------|-------------------|-------------------|-------------------|-----------------|
--L----------------|--L----------------|--L----------------|--L----------------|--L--------------|
-------------------|-------------------|-------------------|-------------------|-----------------|


  E   E  S  E.   H           W                   H.            E  E     H        H
--------------------------|-------------------|----------------------|---------------------|
--------------------------|-------------------|----------------------|---------------------|
--L--12-------------------|-------------------|----------------------|---------------------|
-----------12s---5--------|--L----------------|--L-------------L--0--|--1--------3s--------|


  H.           Q       Q    H.              H.           Q       H        H
--------------------|--------------------|--------------------|---------------------|
--------------------|--------------------|--------------------|---------------------|
--------------------|--------------------|--------------------|---------------------|
--5------------5----|-------5------------|--L------------0----|--1--------3s--------|


  H.           Q       Q    H.              W
--------------------|--------------------|-------------------|
--------------------|--------------------|-------------------|
--------------------|--------------------|-------------------|
--5------------5----|-------5------------|--L----------------|


  Q                                        E  E   H
-----------------------------------------------------------||
-----------------------------------------------------------||
-----------------------------------------------------------||
--L----------------------------------------L--L\-----------||


Duration Legend
---------------
W - whole
H - half
Q - quarter
E - 8th
S - 16th
T - 32nd
X - 64th
. - note dotted
|-n-|  - n-tuplets


Tablature Legend
----------------
L - tied note
x - dead note
g - grace note
(n) - ghost note
> - accentuded note
NH - natural harmonic
AH - artificial harmonic
TH - tapped harmonic
SH - semi harmonic
PH - pitch harmonic
h - hammer on
p - pull off
b - bend
br - bendRelease
pb - preBend
pbr - preBendRelease
brb - bendReleaseBend
\n/ - tremolo bar dip
\n - tremolo bar dive
-/n - tremolo bar Release up
/n\ - tremolo bar inverted dip
/n - tremolo bar return
-\n - tremolo bar Release down
S - shift slide
s - legato slide
/ -  slide into from below or out of upwards
\ -  slide into from above or out of downwards
~ - vibrato
W - wide vibrato
tr - trill
TP - tremolo picking
T - tapping
S - slap
P - pop
< - fade in
^ - brush up
v - brush down

Check my other tabs for Guitar Pro, Powertab, text and chords at 





Comments


Popular Saraya tabs & chords
Seducer Bass Tabs
Love Has Taken Its Toll Chords
Seducer Chords
Love Has Taken Its Toll Tabs
Seducer Tabs
Love Has Taken Its Toll Ukulele
Seducer Ukulele


Song lyrics



↑ Back to top | Tablatures and chords are parodies/interpretations of the original songs. You may use it for private study, scholarship, research or language learning purposes only
© 2014 AZChords.com Contact us | Privacy policy | DMCA | Add/correct tabs | Request tabs | Top 50 tabs