>
 >
Love Has Taken Its Toll

Love Has Taken Its Toll Guitar Tabs

Saraya - Love Has Taken Its Toll chords, tabs, tablatures, lyrics

Guitar lessons | Add/correct | Request | Top 50 tabs Artists:  A B C D E F G H I J K L M N O P Q R S T U V W X Y Z 0-9

Love Has Taken Its Toll Guitar Tabs – Saraya

CD, Sheet music, Poster

Do you like Love Has Taken Its Toll? Share with your friends now
Bass TabsChordsTabsUkulele
			     LOVE HAS TAKEN IT'S TOLL - Saraya


Tuning: Standard



Acoustic Guitar: For the intro, play the 1st eleven measures of the Right Rhythm Guitar.


Rhythm - right

    Intro                                                                         
     H        Q    E.  S    S  S S S E  E   H           S  S S S E  S  S H         
E||----------------------|---------------------------|-------------------5--------|
B||----------------------|---------------------------|-------------------5--------|
G||----------------------|--7--L---7-L------2--------|--7--L---7-L-------6--------|
D||----------------------|--4s-5---4-L------2--------|--4s-5-5-4-L-------7--------|
A||----------------------|--0--L-0-0-L--3b--0--------|--0--L-0-0-L--3b-0----------|
E||--------------------0-|---------------------------|----------------------------|


  S  S S S E  E   Q    E  S  S     S S S S S S E   Q    E  S  S    S  E.  E.  S  
--------------------------------|-------------------------------|---------------|
------------------2----L--------|------3-----3------------------|---------------|
--7--L---7-L------2----L--------|----0-------------2----L--0h-2-|--5p-2---L-----|
--4s-5-5-4-L------2----L--------|------------------2----L--0h-2-|--5p-2---L-----|
--0--L-0-0-L--3b--0----L--0h-2h-|--3-----2-L-------0----L-------|---------------|
--------------------------------|--------------3b---------------|-------------0-|


  S  S S S E  S  S H           S  S S S E  S  S Q    E  S  S    E   S S E  E   Q    E  S  S  
----------------------------|-------------------5----L-------|------------------------------|
-------------------2--------|-------------------5----L-------|------------------------------|
--7--L---7-L-------2--------|--7--L---7-L--------------------|--7---L-7-L------2----2-------|
--4s-5---4-L-------2--------|--4s-5-5-4-L--------------------|--4s--5-4-L------2----2-------|
--0--L-0-0-L--3p-0-0--------|--0--L-0-0-L--3b-0---------3p-0-|--0---L-0-L--3b--0----0--0h-2-|
----------------------------|--------------------------------|------------------------------|


  S S S S S S E      H.            Q        S  E  S E  E   Q    E  S S  
------------------|----------------------|-----------------------------|
------3-----3-----|----------------------|-----------------------------|
----0-------------|--2-------------------|--7--L--7-L------2----L------|
------------------|--2-------------------|--4s-5--4-L------2----L------|
--3-----2-L-------|--0-------------------|-------------3b--0----L--0-0-|
--------------3b--|---------------12\----|-----------------------------|


  S  S S S S S S  S Q    E  S S    E   S S E  E   Q    E  S  S    S S S S S S E   H         
--------------------------------|------------------------------|---------------------------|
--------------------------------|------------------------------|------3-----3--------------|
--7--L-7-L-L-7------9----L------|--7---L-7-L------2----L-------|----0-------------2--------|
--4s-5-5-4-L-4------7----L----4-|--4s--5-4-L------2----L-------|------------------2--------|
---------------3p-0---------0-0-|-------------3b--0----L--0h-2-|--3-----2-L-------0--------|
--------------------------------|------------------------------|--------------3b-----------|


  S  E  S E  E   Q    E  S S    S  S S S S S S S Q     E   E      S  S S S E  E   Q    E  S S  
-----------------------------|---------------------------------|------------------------------|
-----------------------------|---------------------------------|------------------------------|
--7--L--7-L------2----L----7-|--L--L-7-L-L-7-----9~----9\------|--7--L-7-7-L------2----L------|
--4s-5--4-L------2----L----4-|--Ls-5-5-4-L-4-----7~----7\------|--4s-5-5-4-L------2----L------|
-------------3b--0----L--0---|---------------0-0---------------|--------------3b--0----L--0-2-|
-----------------------------|-----------------------------7\--|------------------------------|


                                                        Verse 1           
  E  S S E  E  S E.  E  E     E  S S E  E   H           W                 
---------------------------|-------------------------|-------------------|
---------------------------|-------------------------|-------------------|
---------------------------|-------------------------|-------------------|
--5--5-5----5--5-5---5--5--|--5--5-5-L------2--------|-------------------|
--3--3-2----3--3-2---3--2--|--3--3-2-L------0--------|--0----------------|
---------------------------|------------3b-----------|-------------------|


        NH      NH    NH                                                                           
  E     E   S   E.    H           E  S S Q    E  S S Q       W                   W                 
-------------------------------|--------------------------|-------------------|-------------------|
-------------------------------|--------------------------|-------------------|-------------------|
-------------------------------|-------0-L---------0-L----|-------------------|-------------------|
--------------------<>7--------|-----0-----------0--------|--2----------------|--2----------------|
--L--7--------------|--------------------------|--0----------------|--0----------------|
-------------------------------|--1-----------3-----------|-------------------|-------------------|


  E  E  S E.  E  E  Q       E  S S Q    E  S S S S E     H.            Q      
-------------------------|----------------------------|----------------------|
-------------------------|----------------------------|----------------------|
--------------2-----2----|-------0-L---------0-L---0--|----------------------|
--L-------2------2-------|-----0-----------0-----0----|--2-------------------|
--L--0--L----------------|----------------------------|--0-------------------|
-------------------------|--1-----------3-------------|---------------10\----|


  S E.  E  S S  S S E  S E.     S E  S E  E   S S S S E  E      S E  S E  S S S S  S  S S  S  E    
-----------------------------|-------------------------------|------------------------------------|
-----------------------------|-------------------------------|------------------------------------|
-----------------------------|----------------7---7-9-L--L\--|---------------------9----9-11--L\--|
-----------------------------|----------------7---7-9-L--L\--|---------------------9----9-11--L\--|
----2---4----5~-L---5--4-2---|----2----4--L/----9------------|----4----6----7-L-L/---11-----------|
--0--------0------0----------|--0----0-----------------------|--2----2----2-----------------------|


                              Chorus 1                                                           
  E.  S S  S S  S H           S        S S S E  E   Q    E  S S    S  S S S E  S  S Q    E  E    
---------------------------|------------------------------------|-------------------------------|
---------------------------|------------------------------------|-------------------------------|
------------------7--------|--7--------L-7-7-L------2----L------|--7--L-7-7-L-------9----L--L\--|
------------------7--------|--4s-------5-5-4-L------2----L--4-2-|--4s-5-5-4-L-------7----L--L\--|
--5---5------5h-7-5--------|--------------------3b--0----L--0-0-|--------------3p-0-------------|
--3---3-5s-7---------------|------------------------------------|-------------------------------|


  H        Q    E  S S    E.  S E  E   Q     Q        S  S S S E  E   H         
--3--------------------|---------------------------|---------------------------|
--3--------3----L------|--3---3-L------------------|---------------------------|
--0--------2----L------|--0---0-L------2-----------|--7--L-7-7-L------2--------|
--0--------0----L------|---------------2-----------|--4s-5-5-4-L------2--------|
-------------------0-2-|--3---2-L------0-----------|--------------3b--0--------|
--3--------------------|-----------3b-------12\----|---------------------------|


  S  S S S E    S  S  Q      E   E      H        Q    E  S S    E  S S E  E  S E.  E  E   
-------------------------------------|--3--------------------|---------------------------|
------------------10-10~-----L---L\--|--3--------3----L------|---------------------------|
--7--L-7-7-L--7g9--L--L~-----L---L\--|--0--------2----L------|---------------------------|
--4s-5-5-4-L-------------------------|--0--------0----L------|--5--5-5----5--5-5---5--5--|
-------------------------------------|-------------------0-2-|--3--3-2----3--3-2---3--2--|
-------------------------------------|--3--------------------|---------------------------|


                            Verse 2                                          
                \1/                                  NH   NH        NH       
  E  S S E  E   H           W                   E    E    Q    E    E  Q     
-------------------------|-------------------|------------------------------|
-------------------------|-------------------|--------------------<>7--L----|
-------------------------|-------------------|----------<>5----L------------|
--5--5-5-L---------------|-------------------|------------------------------|
--3--3-2-L------0--------|--0----------------|--L--<>5----------------------|
------------3b-----------|-------------------|------------------------------|


  S S S S Q    S S S S Q       H.           S  S S  S    W                 
----------------------------|-------------------------|-------------------|
----------------------------|-------------------------|-------------------|
--------0-L----------0-L----|--2----------------------|-------------------|
------0------------0--------|--2----------------------|--2----------------|
----3------------5----------|--0------------3p-2-3h-5-|--0----------------|
--1------------3------------|-------------------------|-------------------|


              N.H.  N.H.                                                                 
       NH                                                    \1/     \1/                 
  E    E  S   E.    H           S S S S Q    S S S S Q       Q    S  E.   Q     S S S S  
-----------------------------|----------------------------|-----------------------------|
-----------------------------|----------------------------|-----------------------------|
-----------------------------|--------0-L----------0-L----|--5----0h-2------------------|
--L---------------<>3--------|------0------------0--------|-----------------------------|
--L--3--------------|----3------------5----------|---------------------5-4-2---|
-----------------------------|--1------------3------------|--------------10\----------5-|


  PM    PM    PM      PM              PM    PM                          
  S  E  S  E  S  S  S S  E  S E.      S  E  S  E  S  S S S  S S E.  S   
-----------------------------------|-----------------------------------|
-----------------------------------|-----------------------------------|
-----------------------------------|-----------------------------------|
-----------------------------------|-------------------4------6-L---L\-|
-----2-----4-----5~-L----5--4-2~---|-----2-----4--4s-5---5s-7-7-L---L\-|
--0-----0-----0-------0------------|--0-----0--------------------------|


  PM    PM    PM                                                  
  S  E  S  E  S  S S S  E  S  S  E      E.  S S  S S  S H         
-------------------------------------|---------------------------|
-------------------------------------|---------------------------|
------------------------9--9-11--L\--|------------------7--------|
------------------------9--9-11--L\--|------------------7--------|
-----4-----6-----7-L-L/--------------|--5---5------5h-7-5--------|
--2-----2-----2----------------------|--3---3-5s-7---------------|


  Chorus 2                                                                                  
  S        S S S E  E   Q    E  E     S  S S S E  S  S Q    E  E      H        Q    E  S S  
-----------------------------------|-------------------------------|--3--------------------|
-----------------------------------|-------------------------------|--3--------3----L------|
--7--------7-7-7-L------2----L-----|--7--L-7-7-L-------9----L--L\--|--0--------2----L------|
--5--------5-5-4-L------2----L-----|--4s-5-5-4-L-------7----L--L\--|--0--------0----L------|
--------------------3b--0----L--0--|--------------3p-0-------------|-------------------0-2-|
-----------------------------------|-------------------------------|--3--------------------|


  E.  S E  E   H           E.  S E  E   Q    E  E     E.  S E   S  S Q      Q      
------------------------|--------------------------|------------------------------|
--3---3-L---------------|--------------------------|------------------------------|
--0---0-L------2--------|--7---7-L------2----2-----|--7---------7s-9-9~-----------|
---------------2--------|--5---4-L------2----2-----|--5---4-L\-------7~-----------|
--3---2-L------0--------|-----------3b--0----0--0--|------------------------------|
-----------3b-----------|--------------------------|-----------------------12\----|


  H        Q    E  S S    E  S S E  E  S E.  E  E     E  S S E  E   Q    E  S S  
--3--------------------|---------------------------|----------------------------|
--3--------3----L------|---------------------------|----------------------------|
--0--------2----L------|---------------------------|----------------------------|
--0--------0----L------|--5--5-5----5--5-5---5--5--|--5--5-5-L------2----L------|
-------------------0-2-|--3--3-2----3--3-2---3--2--|--3--3-2-L------0----L--0-2-|
--3--------------------|---------------------------|------------3b--------------|


                                                                Bridge            
  E  S S E  E  S E.  E  E     S  S S S E  S S S E.   S S S S    W                 
---------------------------|---------------------------------|-------------------|
---------------------------|---------------------------------|--3----------------|
---------------------------|---------------------------------|--2----------------|
--5--5-5----5--5-5---5--5--|--------------3-2--------5-3-2---|--0----------------|
--3--3-2----3--3-2---3--2--|--3p-2------------5------------5-|-------------------|
---------------------------|-------5-1-L--------3~-----------|-------------------|


  W                   W                   H.           E.  S    W                 
-------------------|-------------------|---------------------|-------------------|
--3----------------|--3----------------|--3------------L---3-|--L----------------|
--3----------------|--0----------------|--0------------L---2-|--L----------------|
--0----------------|-------------------|-------------------0-|--L----------------|
-------------------|--2----------------|--3------------L-----|-------------------|
-------------------|-------------------|---------------------|-------------------|


  W                   W                   W                 
-------------------|-------------------|-------------------|
--3----------------|--3----------------|--3----------------|
--3----------------|--0----------------|--0----------------|
--0----------------|-------------------|-------------------|
-------------------|--2----------------|--3----------------|
-------------------|-------------------|-------------------|


  PM PM PM PM    PM PM PM PM    PM PM       PM PM PM PM    PM PM PM PM             
  S  S  S  S  E  S  S  S  S  E  S  S  E     S  S  S  S  E  S  S  S  S  E  E   E    
-----------------------------------------|----------------------------------------|
-----------------------------------------|----------------------------------------|
--------------5--------------7--------5--|--------------5--------------7--L~--L\--|
--------------5--------------7--------5--|--3--3--3--3--3--3--3--3--0--5--L~--L\--|
--0--0--0--0-----0--0--0--0-----0--0-----|----------------------------------------|
-----------------------------------------|----------------------------------------|


  PM PM PM PM    PM PM PM PM    PM PM       PM PM PM PM        PM PM PM PM PM      
  S  S  S  S  E  S  S  S  S  E  S  S  E     S  S  S  S  E  E   S  S  S  S  S  E.   
-----------------------------------------|----------------------------------------|
-----------------------------------------|----------------------------------------|
--------------5--------------7--------5--|--------------5--L\---------------------|
--------------5--------------7--------5--|--3--3--3--3--3--L\--3--3--3--3--3--2---|
--0--0--0--0-----0--0--0--0-----0--0-----|----------------------------------------|
-----------------------------------------|----------------------------------------|


  Guitar Solo                                                                   
  W                   W                   W                   W                 
-------------------|-------------------|-------------------|-------------------|
--3----------------|--3----------------|--3----------------|--3----------------|
--2----------------|--3----------------|--0----------------|--0----------------|
--0----------------|--0----------------|-------------------|-------------------|
-------------------|-------------------|--2----------------|--3----------------|
-------------------|-------------------|-------------------|-------------------|


  H.           E.  S    H.           E.  S    H.           E.  S    W                 
---------------------|---------------------|---------------------|-------------------|
---------------------|---------------------|---------------------|-------------------|
--9------------L---5-|--L------------L-----|---------------------|-------------------|
--9------------L---5-|--L------------L---7-|--L------------L---7-|--L----------------|
--7------------L---3-|--L------------L---4-|--L------------L---5-|--L----------------|
---------------------|---------------------|---------------------|-------------------|


  E  S S E  E  S E.  E  E     E  S S E  E   H           E  S S E  E  S E.  E  E   
---------------------------|-------------------------|---------------------------|
---------------------------|-------------------------|---------------------------|
---------------------------|-------------------------|---------------------------|
--5--5-5----5--5-5---5--5--|--5--5-5-L------2--------|--5--5-5----5--5-5---5--5--|
--3--3-2----3--3-2---3--2--|--3--3-2-L------0--------|--3--3-2----3--3-2---3--2--|
---------------------------|------------3b-----------|---------------------------|


                                     Verse 3                                               
                                                           NH    NH     NH     NH    NH    
  S  S S S E  S  S S E.   S S S S    W                     E.    S E    E  S   E.    Q     
----------------------------------|-------------------|-----------------------------------|
----------------------------------|-------------------|----------------------<>7----------|
----------------------------------|-------------------|---------------7----|
--------------3p-2--------5-3-2-2-|--L----------------|--------<>5-L----------------------|
--3p-2-------------5------------0-|--L----------------|--<>5------------------------------|
-------5-1-L---------3~-----------|-------------------|-----------------------------------|


                                                                   PM PM  
  E  E  Q    E  E  Q       H.           S S S S    H.           E  S  S   
------------------------|-----------------------|------------------------|
------------------------|-----------------------|------------------------|
--------0----------0----|-----------------------|------------------------|
-----0----------0-------|-----------------------|--2------------L--------|
------------------------|--0------------3-2-3-5-|--0------------L--0--0--|
--1----------3----------|-----------------------|------------------------|


        PM PM                                               \1/                   
  E  E  S  S  S S Q     E  E      H        Q    E  E     E  E   H        S S S S  
-------------------------------|----------------------|--------------------------|
--8--8-------------------------|----------------------|--------------------------|
--7--7------------9~----9--L\--|----------------------|-----0---L----------------|
--5--5------------7~----7--L\--|--3--------5----5--5--|--------------------------|
--------0--0--0-0--------------|--3--------5----5--5--|--x---------------5-4-2---|
-------------------------------|--1--------3----3--3--|--x---------------------5-|


  PM    PM    PM      PM             PM    PM                        
  S  E  S  E  S  S  S S  E  S E.     S  E  S  E  E   S S S S E  E    
----------------------------------|---------------------------------|
----------------------------------|---------------------------------|
----------------------------------|------------------7---7-9-L--L\--|
----------------------------------|------------------7---7-9-L--L\--|
-----2-----4-----5~-L----5--4-2---|-----2-----4--L/----9------------|
--0-----0-----0-------0-----------|--0-----0------------------------|


  PM    PM    PM                                                                           
  S  E  S  E  S  S S S  S  S S  S  E      E.  S S  S S  S H           H.            Q      
---------------------------------------|---------------------------|----------------------|
---------------------------------------|---------------------------|----------------------|
------------------------9----9-11--L\--|------------------7--------|--L-------------------|
------------------------9----9-11--L\--|------------------7--------|--L-------------------|
-----4-----6-----7-L-L/---11-----------|--5---5------5h-7-5--------|--L-------------------|
--2-----2-----2------------------------|--3---3-5s-7---------------|---------------17\----|


  Chorus 3                                                                                  
  S        S S S E  E   Q    E  E     S  S S S E  S  S Q    E  E      H        Q    E  S S  
-----------------------------------|-------------------------------|--3--------------------|
-----------------------------------|-------------------------------|--3--------3----L------|
--7--------7-7-7-L------2----L-----|--7--L-7-7-L-------9----L--L\--|--0--------2----L------|
--5--------5-5-4-L------2----L-----|--4s-5-5-4-L-------7----L--L\--|--0--------0----L------|
--------------------3b--0----L--0--|--------------3p-0-------------|-------------------0-2-|
-----------------------------------|-------------------------------|--3--------------------|


  E.  S E  E   H           S S S S E  E   Q    E  E     S  S S S E  S  S Q    E  E    
------------------------|----------------------------|-------------------------------|
--3---3-L---------------|----------------------------|-------------------------------|
--0---0-L------2--------|--7-7-7-7-L------2----L-----|--7--L-7-7-L-------9----L--L\--|
---------------2--------|--5-5-5-4-L------2----L-----|--4s-5-5-4-L-------7----L--L\--|
--3---2-L------0--------|-------------3b--0----L--0--|--------------3p-0-------------|
-----------3b-----------|----------------------------|-------------------------------|


  H        Q    E  S S    E.  S E  E   H           S S S S E  E   Q    E  E   
--3--------------------|------------------------|----------------------------|
--3--------3----L------|--3---3-L---------------|----------------------------|
--0--------2----L------|--0---0-L------2--------|--7-7-7-7-L------2----L-----|
--0--------0----L------|---------------2--------|--5-5-5-4-L------2----L-----|
-------------------0-2-|--3---2-L------0--------|-------------3b--0----L--0--|
--3--------------------|-----------3b-----------|----------------------------|


  S  S S S E  S  S Q    E  E      H        Q    E  S S    E.  S E  E   H         
-------------------------------|--3--------------------|------------------------|
-------------------------------|--3--------3----L------|--3---3-L---------------|
--7--L-7-7-L-------9----L--L\--|--0--------2----L------|--0---0-L------2--------|
--4s-5-5-4-L-------7----L--L\--|--0--------0----L------|---------------2--------|
--------------3p-0-------------|-------------------0-2-|--3---2-L------0--------|
-------------------------------|--3--------------------|-----------3b-----------|


  S S S S E  E   Q    E  E     S  S S S E  S  S Q    E  E      H        Q    E  S  S  
----------------------------|-------------------------------|--3---------------------|
----------------------------|-------------------------------|--3--------3----L-------|
--7-7-7-7-L------2----L-----|--7--L-7-7-L-------9----L--L\--|--0--------2----L-------|
--5-5-5-4-L------2----L-----|--4s-5-5-4-L-------7----L--L\--|--0--------0----L-------|
-------------3b--0----L--0--|--------------3p-0-------------|-------------------0h-2-|
----------------------------|-------------------------------|--3---------------------|


  E  S S E  E  S E.  Q       E  S S E  E  S E.  Q       E  S S E  E  S E.  E  E     E  S S E  E    
--------------------------|--------------------------|---------------------------|----------------|
--3--3-3----3--3-3--------|--3--3-3----3--3-3--------|--3--3-3----3--3-3---3--3--|--3--3-3-L------|
--0--0-0----0--0-0--------|--0--0-0----0--0-0--------|--0--0-0----0--0-0---0--0--|--0--0-0-L------|
--------------------------|--------------------------|---------------------------|---------L------|
--3--3-2----3--3-2--------|--3--3-2----3--3-2--------|--3--3-2----3--3-2---3--2--|--3--3-2-L------|
--------------------------|--------------------------|---------------------------|------------3b--|


  Outro                                                                                             
  \1/                                                                                               
  W                   W                   W                   W                   W                 
-------------------|-------------------|-------------------|-------------------|-------------------|
-------------------|-------------------|-------------------|-------------------|-------------------|
--2----------------|--L----------------|--L----------------|--L----------------|--L----------------|
--2----------------|--L----------------|--L----------------|--L----------------|--L----------------|
--0----------------|--L----------------|--L----------------|--L----------------|--L----------------|
-------------------|-------------------|-------------------|-------------------|-------------------|


                                                             NH   NH      NH                
  W                   W                   H.           E     S    S       W                 
-------------------|-------------------|----------------------------|----------------------|
-------------------|-------------------|----------------------------|----------------------|
--L----------------|--L----------------|--L------------L------------|--<>12----------------|
--L----------------|--L----------------|--L------------L-------<>12-|----------------------|
--L----------------|--L----------------|--L------------L--<>12------|----------------------|
-------------------|-------------------|----------------------------|----------------------|


              NH    NH     NH                                         ^                      
   H          E.    S E    E     W                   H.           E.  S    W                 
------------------------------|--3----------------|--L------------L-----|-------------------|
------------------------------|--3----------------|--L------------L---5-|--L----------------|
---L--------------------------|--0----------------|--L------------L---5-|--L----------------|
------------------<>7-L-------|-------------------|-------------------5-|--L----------------|
------------7--|-------------------|-------------------0-|--L----------------|
------------------------------|-------------------|---------------------|-------------------|


                                                         NH    NH    NH        ^                   
  H        E.   S E  E     W                   E  E  S   E.    E.    S Q       H        H          
-----------8s---7-L-----|-------------------|-------------------------------|---------------------|
--L------------------8--|-------------------|-----8--L-------<>7------------|--5--------L---------|
--L---------------------|--7----------------|--L-------7-L----|--5--------L~--------|
--L---------------------|-------------------|-------------------------------|--5--------L~--------|
--L---------------------|-------------------|-------------------------------|--0--------L---------|
------------------------|-------------------|-------------------------------|---------------------|


  ^                                                           
  W                    W                   W                  
--------------------|-------------------|-------------------||
--5~----------------|--L----------------|--L----------------||
--4~----------------|--L----------------|--L----------------||
--5~----------------|--L----------------|--L----------------||
--0-----------------|--L----------------|--L----------------||
--------------------|-------------------|-------------------||


Rhythm - left (solo)

      Intro - m.7 - use slide                                                                     
      W                          H         E.   S   E   E       Q     H.                H         
E||--------------------------|------------15----------------|-----------------------|------------|
B||--15b---------------------|---L-------------15b--L--12b--|-----------------------|------------|
G||--------------------------|------------------------------|--14-----L~------------|---L--------|
D||--------------------------|------------------------------|-----------------------|------------|
A||--------------------------|------------------------------|-----------------------|------------|
E||--------------------------|------------------------------|-----------------------|------------|


   \1/                                                                           
   W                   W                   W                   W                 
--------------------|-------------------|-------------------|-------------------|
--------------------|-------------------|-------------------|-------------------|
--14----------------|-------------------|-------------------|-------------------|
--------------------|-------------------|-------------------|-------------------|
--------------------|-------------------|-------------------|-------------------|
--------------------|-------------------|-------------------|-------------------|


     Verse 1 - m.28                                                                            
     H              Q     Q        S E.  E  S S  S S E  S E.     S E  S E  E   S S S S E  E    
E||-----------------------------|-----------------------------|-------------------------------|
B||-----------------------------|-----------------------------|-------------------------------|
G||-----------------------------|-----------------------------|----------------7---7-9-L--L\--|
D||-----------------------------|-----------------------------|----------------7---7-9-L--L\--|
A||-----------------------------|----2---4----5~-L---5--4-2---|----2----4--L/----9------------|
E||----------------------10\----|--0--------0------0----------|--0----0-----------------------|


  S E  S E  S S S S  S  S S  S  E      E.  S S  S S  S H           W                 
------------------------------------|---------------------------|-------------------|
------------------------------------|---------------------------|-------------------|
---------------------9----9-11--L\--|------------------7--------|-------------------|
---------------------9----9-11--L\--|------------------7--------|-------------------|
----4----6----7-L-L/---11-----------|--5---5------5h-7-5--------|-------------------|
--2----2----2-----------------------|--3---3-5s-7---------------|-------------------|


     Verse 2 - m.49                                                   
                                    PM    PM    PM      PM            
     H              Q    S S S S    S  E  S  E  S  S  S S  E  S E.    
E||------------------------------|-----------------------------------|
B||------------------------------|-----------------------------------|
G||------------------------------|-----------------------------------|
D||------------------------------|-----------------------------------|
A||----------------------5-4-2---|-----2-----4-----5~-L----5--4-2~---|
E||----------------------------5-|--0-----0-----0-------0------------|


  PM    PM                            PM    PM    PM                      
  S  E  S  E  S  S S S  S S E.  S     S  E  S  E  S  S S S  E  S  S  E    
-----------------------------------|-------------------------------------|
-----------------------------------|-------------------------------------|
-----------------------------------|------------------------9--9-11--L\--|
-------------------4------6-L---L\-|------------------------9--9-11--L\--|
-----2-----4--4s-5---5s-7-7-L---L\-|-----4-----6-----7-L-L/--------------|
--0-----0--------------------------|--2-----2-----2----------------------|


  E.  S S  S S  S H           W                   W                   W                 
---------------------------|-------------------|-------------------|-------------------|
---------------------------|-------------------|-------------------|-------------------|
------------------7--------|-------------------|-------------------|-------------------|
------------------7--------|-------------------|-------------------|-------------------|
--5---5------5h-7-5--------|-------------------|-------------------|-------------------|
--3---3-5s-7---------------|-------------------|-------------------|-------------------|


     Chorus 2 - m.63                                                   Bridge                
     H               E.  S  Q        S  S S S E  S S S E.   S S S S    H.           S S S S  
E||-------------------------------|---------------------------------|-----------------------|
B||-------------------------------|---------------------------------|-----------------------|
G||-------------------------------|---------------------------------|-----------------------|
D||-------------------------------|--------------3-2--------5-3-2---|---------------5-3-2---|
A||----------------------x--------|--3p-2------------5------------5-|--L------------------5-|
E||----------------------x-17\----|-------5-1-L--------3~-----------|-----------------------|


  H.           S S S S    H.           S S S S    H.           S S S S    H.           S S S S  
-----------------------|-----------------------|-----------------------|-----------------------|
-----------------------|-----------------------|-----------------------|-----------------------|
-----------------------|-----------------------|-----------------------|-----------------------|
---------------5-3-2---|---------------5-3-2---|---------------5-3-2---|---------------5-3-2---|
--1------------------2-|--L------------------3-|--L------------------5-|--L------------------5-|
-----------------------|-----------------------|-----------------------|-----------------------|


  H.           S S S S    H.           S S S S    W                 
-----------------------|-----------------------|-------------------|
-----------------------|-----------------------|-------------------|
-----------------------|-----------------------|-------------------|
---------------5-3-2---|---------------5-3-2---|-------------------|
--1------------------2-|--L------------------3-|--L----------------|
-----------------------|-----------------------|-------------------|


  PM PM PM PM    PM PM PM PM    PM PM       PM PM PM PM    PM PM PM PM             
  S  S  S  S  E  S  S  S  S  E  S  S  E     S  S  S  S  E  S  S  S  S  E  E   E    
-----------------------------------------|----------------------------------------|
-----------------------------------------|----------------------------------------|
--------------5--------------7--------5--|--------------5--------------7--L~--L\--|
--------------5--------------7--------5--|--3--3--3--3--3--3--3--3--0--5--L~--L\--|
--0--0--0--0-----0--0--0--0-----0--0-----|----------------------------------------|
-----------------------------------------|----------------------------------------|


  PM PM PM PM    PM PM PM PM    PM PM       PM PM PM PM        PM PM PM PM PM      
  S  S  S  S  E  S  S  S  S  E  S  S  E     S  S  S  S  E  E   S  S  S  S  S  E.   
-----------------------------------------|----------------------------------------|
-----------------------------------------|-----------------------------------10---|
--------------5--------------7--------5--|--------------5--------------10-12------|
--------------5--------------7--------5--|--3--3--3--3--3--------10-12------------|
--0--0--0--0-----0--0--0--0-----0--0-----|-----------------0--12------------------|
-----------------------------------------|----------------------------------------|


   Guitar Solo                             
   Q.          E    Q     S  S   T  T   S  
------------------------------------------|
--13b---------13b---L-----L-13b--L--Lp-10-|
------------------------------------------|
------------------------------------------|
------------------------------------------|
------------------------------------------|


   |---3---|   |--3--|  |---3---|  |--3--|  |---3--|                
   S   S   S   S  S  S  S   S   S  S  S  S  S  S   S  E      Q      
--13p-10h-13p-10----10---------------------------------------------|
-----------------13----13p-12p-10----12----10-------------<>12b----|
----------------------------------12----10----12p-10---------------|
-----------------------------------------------------12\-----------|


                                     P.H.                           
                                                          \1/       
   S  S   E    H         S   S  S    S      S  E.    Q    H         
---------22b---L------------------------|--------------------------|
----------------------------------------|--------------------------|
---L------------------------------------|--------------------------|
-----(0)----------------10h-12-12-<>12b-|---L-12b----L-------------|
----------------------------------------|--------------------------|
----------------------------------------|-----------------0--------|


   |---3---|   |---3---|   |-3-|                                                        
   E   E   E   E   E   E   E   Q      E   S  S     E   S  S  S  S  E   S  E   S  Q      
-----------------------------------------12----|--14-----15--L----17-----19-----22b----|
--------------------------12--15b-----L-----12-|------12-------15-----17-----17--------|
------------------12--14-----------------------|---------------------------------------|
----------12--14-------------------------------|---------------------------------------|
--12--14---------------------------------------|---------------------------------------|
-----------------------------------------------|---------------------------------------|


                                                            N.H.              N.H.              
                                                            \1/               \1/               
                |---3---|    |----3----|                                                        
   E   E   Q    E  E    E    E    E    E       E     S  S   H.                W                 
--------------------------------------------|----------------------------|---------------------|
--------------------------------------------|----------------------------|--<>5----------------|
-------2b--L----L--2pb--2pb--2pb--2pb--2pb--|--2pbr--Lp-0-<>3------------|---------------------|
--(0)---------------------------------------|----------------------------|---------------------|
--------------------------------------------|----------------------------|---------------------|
--------------------------------------------|----------------------------|---------------------|


          |--3-|  |--3-| |--3-|  |-3-|  |--3-|                               
  Q    E  S  S S  S  S S S S  S  S S S  S S  S    Q     E  E   E.  S  Q      
-----------------------------------------------|----------------------------|
--L------------5h-8p-5---5---------------------|----------------------------|
----------7h-8---------8---8p-7p-5---7p-5------|----------------------------|
-----------------------------------7------7p-5-|--7~----L--L\---------------|
-----------------------------------------------|-------------------x--------|
-----------------------------------------------|-------------------x-17\----|


                                     Verse 3                                                   
  S  S S S E  S  S S E.   S S S S    W                   W                   W                 
----------------------------------|-------------------|-------------------|-------------------|
----------------------------------|-------------------|-------------------|-------------------|
----------------------------------|-------------------|-------------------|-------------------|
--------------3p-2--------5-3-2-2-|--L----------------|--L----------------|--L----------------|
--3p-2-------------5------------0-|--L----------------|--L----------------|--L----------------|
-------5-1-L---------3~-----------|-------------------|-------------------|-------------------|


     Verse 3 - m.97                                                                 
     PM                PM    PM      PM             PM    PM                        
     S              E  S  E  S  S  S S  E  S E.     S  E  S  E  E   S S S S E  E    
E||----------------------------------------------|---------------------------------|
B||----------------------------------------------|---------------------------------|
G||----------------------------------------------|------------------7---7-9-L--L\--|
D||----------------------------------------------|------------------7---7-9-L--L\--|
A||-----------------2-----4-----5~-L----5--4-2---|-----2-----4--L/----9------------|
E||--0-----------------0-----0-------0-----------|--0-----0------------------------|


                                                                                Pick Scrape        
  PM    PM    PM                                          \1/                                      
  S  E  S  E  S  S S S  S  S S  S  E      E.  S S  S E    H           H         Q           Q      
---------------------------------------|---------------------------|------------------------------|
---------------------------------------|---------------------------|------------------------------|
------------------------9----9-11--L\--|---------------------------|------------x\----------------|
------------------------9----9-11--L\--|----------------<>5--------|--L---------x\----------------|
-----4-----6-----7-L-L/---11-----------|--5---5------5--<>5--------|--L---------------------------|
--2-----2-----2------------------------|--3---3-5s-7---------------|-----------------------17\----|


     Chorus 3 - m.109                                                 
                      |--3-| |--3-|  |--3-|  |--3-|  |-3|  |--3-|     
     E                S  S S S  S S  S  S S  S  S S  E  S  S  S S E   
E||------------------------------------------------------------------|
B||------------------------------------------------------------------|
G||-----------------------------------------------------5h-7p-5---5--|
D||-------------------------------5h-7p-5---------5h-7----------7----|
A||------------------------3-5s-7---------7p-5h-7--------------------|
E||-------------------3h-5-------------------------------------------|


  E.   S  E  E   Q    E   S S    E.   S  E    E    H            W                 
------------------------------|------------------------------|-------------------|
--7b---7b-L-------------------|--7b---7b-L/--13b-------------|-------------------|
-------------5b-----------7-5-|-------------------14~--------|--L----------------|
-----------------7----L\------|------------------------------|-------------------|
------------------------------|------------------------------|-------------------|
------------------------------|------------------------------|-------------------|


  E   E    Q     E   S  S  Q         E.    S   E   E    Q.       E    
---------------------------------|---------------------20b------20b--|
-----19b---L-----L---------------|--19b---19b--L---------------------|
-----------------------17--------|----------------17b----------------|
--------------------19----19~----|-----------------------------------|
---------------------------------|-----------------------------------|
---------------------------------|-----------------------------------|


   S  S  S  S  S  S   S   S  S  E.     Q        H         H            W                 
---L-20-17----17-----17h-20-17--------------|-----------------------|-------------------|
-----------20----20b-----------20b~----L----|---L-------------------|-------------------|
--------------------------------------------|-----------------------|-------------------|
--------------------------------------------|-----------------------|-------------------|
--------------------------------------------|-----------------------|-------------------|
--------------------------------------------|------------17\--------|-------------------|


                                                          Outro                                     
              \1/                                                                               NH  
  H        E  E   Q       W                   H           W                   H.           E    E   
-----------------------|-------------------|-----------|-------------------|-----------------------|
-----------------------|-------------------|-----------|-------------------|-----------------------|
-----------------------|-------------------|-----------|--2----------------|--L------------L-------|
-----------------------|-------------------|-----------|--2----------------|--L------------L-------|
-----------------------|-------------------|-----------|--0----------------|--L------------L--<>7--|
--------------0--------|-------------------|-----------|-------------------|-----------------------|


    \1/                                                                           
    W                   W                   W                   W                 
---------------------|-------------------|-------------------|-------------------|
---------------------|-------------------|-------------------|-------------------|
---------------------|-------------------|-------------------|-------------------|
--<>7----------------|--L----------------|--L----------------|--L----------------|
---------------------|-------------------|-------------------|-------------------|
---------------------|-------------------|-------------------|-------------------|


                                         NH   NH      NH                                    
  W                   H.           E     S    S       W                   W                 
-------------------|----------------------------|----------------------|-------------------|
-------------------|----------------------------|----------------------|-------------------|
-------------------|----------------------------|--<>12----------------|--L----------------|
--L----------------|--L------------L-------<>12-|----------------------|-------------------|
-------------------|------------------<>12------|----------------------|-------------------|
-------------------|----------------------------|----------------------|-------------------|


                NH   NH                                                                
  H        E    E    Q       W                   W                   W                 
--------------------------|-------------------|-------------------|-------------------|
--------------------------|-------------------|-------------------|-------------------|
--L--------L--------------|-------------------|-------------------|-------------------|
-------------------<>7----|--L----------------|--L----------------|--L----------------|
--------------<>7---------|-------------------|-------------------|-------------------|
--------------------------|-------------------|-------------------|-------------------|


  Q    E  E  E  E  Q       W                  
------------------------|-------------------||
------------------------|-------------------||
--4----L--4--L--4--L----|--L----------------||
------------------------|-------------------||
------------------------|-------------------||
------------------------|-------------------||


Clean Guitar

     Bridge - m.65                                                                             
     E             E  E  E  E  E  E  E     E  E  E  E  E  E  E  E     E  E  E  E  E  E  E  E   
E||-------------------------0-----------|--------------0-----------|--------------0-----------|
B||-------------------3--------3-----3--|--------3--------3-----3--|--------3--------3-----3--|
G||----------------2-----2--------2-----|-----3-----3--------3-----|-----4-----4--------4-----|
D||--0----------------------------------|--0-----------------------|--0-----------------------|
A||-------------------------------------|--------------------------|--------------------------|
E||-------------------------------------|--------------------------|--------------------------|


  E  E  E  E  E  E  E  E     E  E  E  E  E  E  E  E     E  E  E  E  E  E  E  E   
--------------0-----------|-----------0--------------|-----------0--------------|
--------3--------3-----3--|--------3-----3-----------|--------3-----3-----------|
-----5-----5--------5-----|-----2-----------2-----2--|-----3-----------3-----3--|
--5-----------------------|--0-----------------0-----|--0-----------------0-----|
--------------------------|--------------------------|--------------------------|
--------------------------|--------------------------|--------------------------|


  E  E  E  E  E  E  E  E     E  E  E  E  E  E  E  E    
-----------0--------------|-----------0--------------||
--------3-----3-----------|--------3-----3-----------||
-----4-----------4-----4--|-----5-----------5-----5--||
--0-----------------0-----|--5-----------------5-----||
--------------------------|--------------------------||


Check my other tabs for Guitar Pro, Powertab, text and chords at 





Comments


Popular Saraya tabs & chords
Love Has Taken Its Toll Bass Tabs
Seducer Bass Tabs
Love Has Taken Its Toll Chords
Seducer Chords
Seducer Tabs
Love Has Taken Its Toll Ukulele
Seducer Ukulele


Song lyrics



↑ Back to top | Tablatures and chords are parodies/interpretations of the original songs. You may use it for private study, scholarship, research or language learning purposes only
© 2014 AZChords.com Contact us | Privacy policy | DMCA | Add/correct tabs | Request tabs | Top 50 tabs