>
 >
Drawn To The Rhythm

Drawn To The Rhythm Guitar Tabs

Sarah Mclachlan - Drawn To The Rhythm chords, tabs, tablatures, lyrics

Guitar lessons | Add/correct | Request | Top 50 tabs Artists:  A B C D E F G H I J K L M N O P Q R S T U V W X Y Z 0-9

Drawn To The Rhythm Guitar Tabs – Sarah Mclachlan

CD, Sheet music, Poster

Do you like Drawn To The Rhythm? Share with your friends now
Tabs
Drawn To the Rhythm- Sarah McLachlan



INTRO
  A                               D/A A                       
e|-----------------------------------|----------------------------------|
B|---------2-----------------------3-|-------2-----------------3--------|
G|----2----2--2-----2------2----2--2-|---2---2--2--------------2--------|
D|----2----2--2-----2------2----2--4-|---2---2--2--------------2--------|  X2
A|----0-------0-----0------0----0--0-|---0------0--------------0--------|
E|-----------------------------------|-----------------0---3-------3----|

  A                                                       A7sus
e|-----------------------------------|----------------------------------||
B|---------2-------------------------|------2----------------------3----||
G|----2----2--2----2-----------------|------2--2----------0--0-----0----||
D|----2----2--2----2----2--------2---|--2---2--2----------2--2-----2----||
A|----0-------0----0----0--0-0---0---|--0------0---0--0---0--0----------||
E|-----------------------------------|----------------------------------||



VERSE 1

 A                                 A7sus
 When we wore a heart of stone, we wandered to the sea
 A 
 Hoping to find some comfort there, 
 A7sus
 Yearning to feel free.
 A
      And we were

BRIDGE

 F#m               G
 Mesmerized by the lull of the night and the
 D                      A
 Smells that filled the air...        And we
 F#m               G                  Bm                     A
 Laid us down on sandy ground. It was cold, but we didn't care.
 
CHORUS
             A                   G
 And we were drawn to the rhythm,
      D                   A
 Drawn into the rhythm of the sea.
                                 G
 And we were drawn to the rhythm,
      D                   A      Asus
 Drawn into the rhythm of the sea.

VERSE 2 (different from the first!)
  
  A              Asus   A          Asus
  We fell asleep and began to dream
       Em7                 A
  When something broke the night.
  F#m                     G
  Mem'ries stirred inside of us
  D                    A
  The struggle and the fight

  And we could 

BRIDGE 2

 F#m                G
 Feel the heat of a thousand voices 
 D                        A
 Telling us which way to go.       And we 
 F#m                  G                   Bm                   A
 Cried out, "Is there no escape, from the words that plague us so?"


CHORUS
             A                   G
 And we were drawn to the rhythm,
      D                   A
 Drawn into the rhythm of the sea.
                                 G
 And we were drawn to the rhythm,
      D                   A      Asus
 Drawn into the rhythm of the sea.
 
VERSE 3

 F#m              G
 In the still and silent dawn
 D                  A
 Another day is born.
 F#m                          G                   
 Washed up by the tireless waves, the
 Bm            A
 Body bent and torn.

INTERLUDE

 A                       Em7
 In the face of the blinding sun 
   D            A
 A-wake only to find 
 A                     G              D7                    A
 That heaven is a stranger place than what you've left behind.

CHORUS
             A                   G
 And we were drawn to the rhythm,
      D                   A
 Drawn into the rhythm of the sea.
                                 G
 And we were drawn to the rhythm,
      D                   A      Asus
 Drawn into the rhythm of the sea.
             A                   G
 And we were drawn to the rhythm,
      D                   A
 Drawn into the rhythm of the sea.
                                 G
 And we were drawn to the rhythm,
      D                   A      Asus
 Drawn into the rhythm of the sea.

INTRO
  A                               D/A A                       
e|-----------------------------------|----------------------------------|
B|---------2-----------------------3-|-------2-----------------3--------|
G|----2----2--2-----2------2----2--2-|---2---2--2--------------2--------|
D|----2----2--2-----2------2----2--4-|---2---2--2--------------2--------|  X2
A|----0-------0-----0------0----0--0-|---0------0--------------0--------|
E|-----------------------------------|-----------------0---3-------3----|

  A                                      (slowing)               A7sus 
e|-----------------------------------|----------------------------------||
B|---------2-------------------------|------2----------------------3----||
G|----2----2--2----2-----------------|------2--2----------0--0-----0----||
D|----2----2--2----2----2--------2---|--2---2--2----------2--2-----2----||
A|----0-------0----0----0--0-0---0---|--0------0---0--0---0--0----------||
E|-----------------------------------|----------------------------------||
                                                                  ...let ring





Comments


Popular Sarah Mclachlan tabs & chords
Ice Bass Tabs
Don't Give Up On Us Chords
Good Enough 1 Chords
In The Arms Of The Angel Chords
World On Fire 2 Chords
Sweet Surrender Drum Tabs
Angel Tabs
Mary Ukulele
Silence Ukulele
What Child Is This Greensleeves Ukulele


Song lyrics



↑ Back to top | Tablatures and chords are parodies/interpretations of the original songs. You may use it for private study, scholarship, research or language learning purposes only
© 2014 AZChords.com Contact us | Privacy policy | DMCA | Add/correct tabs | Request tabs | Top 50 tabs