>
 >
Building A Mystery Live

Building A Mystery Live Guitar Tabs

Sarah Mclachlan - Building A Mystery Live chords, tabs, tablatures, lyrics

Guitar lessons | Add/correct | Request | Top 50 tabs Artists:  A B C D E F G H I J K L M N O P Q R S T U V W X Y Z 0-9

Building A Mystery Live Guitar Tabs – Sarah Mclachlan

CD, Sheet music, Poster

Do you like Building A Mystery Live? Share with your friends now
ChordsTabsUkulele
Autor - FOS
-03/21/04-
Sarah McLachlan - Building a mystery (Live)
Written by Sarah McLachlan


----( Standard ) Capo 7th fret ----- 
or Tunning :Fbeac#f -Capo 5th fret-

Intro

|------------------|--0-----0-----0-----0--0--
|------------------|--0-----0-----0-----3--3--
|------------------|--0-----0-----0-----0--0--
|-------4--5--4--0-|--2--2--2--2--2--2--2--2--
|-------5--5--5--5-|--2--2--2--2--3--3--3--3--
|------------------|--0--0--0--0--3--3--3--3--

-0--0--0--0------------0---|--0-----0--0--
-3--3--3--3------------5---|--0-----0--0--
-0--0--0--0----------------|--0-----0--0--
-0--0--0--0--4--5--4--(4)--|--2--2--2--2--
-2--2--2--2--5--5--5--(5)--|--2--2--2--2--
-3--3--3--3--5--5--5--(5)--|--0--0--0--0--

-(0)--(0)--(0)--(0)--(0)--(0)--(0)--(0)------------0---|
-(0)--(0)--(0)--(0)---2----3----2----0-------------5---|
-(0)--(0)--(0)--(0)--(0)--(0)--(0)--(0)----------------|
--2----2----2----2---(0)--(0)--(0)--(0)--4--5--4--(4)--|
--3----3----3----3---(0)--(0)--(0)--(0)--5--5--5--(5)--|
--3----3----3----3----3----3----3----3---5--5--5--(5)--|



Verse 1&2&3


|--0-----0-----0-----0--0---0--0--0--0------------0---|
|--0-----0-----0-----3--3---3--3--3--3------------5---|
|--0-----0-----0-----0--0---0--0--0--0----------------|
|--2--2--2--2--2--2--2--2---0--0--0--0--4--5--4--(4)--|
|--2--2--2--2--3--3--3--3---2--2--2--2--5--5--5--(5)--|
|--0--0--0--0--3--3--3--3---3--3--3--3--5--5--5--(5)--|



Transition to the 2nd verse -----------"You're building a mystery"


|--0--|6x|--0--|3x||--0--|1x|--5--4--2--0--|
|--0--|  |--3--|  ||--5--|  |-----------0--|
|--2--|  |--0--|  ||--0--|  |-----------0--|
|--2--|  |--2--|  ||--4--|  |-----------2--|
|--0--|  |--3--|  ||--5--|  |-----------2--| 
|--0--|  |--3--|  ||--5--|  |-----------0--|

than (verse2) ----------"You live in a church"-------------



Pre-chorus: ( I don't know how to call it) for verse 2 and 3 


|--0--|6x|--0--|3x||--0--|1x|   |  than   |--5--4--2--0--| 
|--0--|  |--3--|  ||--5--|  |   |         |-----------0--|
|--2--|  |--0--|  ||--0--|  |BIS|         |-----------0--|
|--2--|  |--2--|  ||--4--|  |   |         |-----------2--|
|--0--|  |--3--|  ||--5--|  |   |         |-----------2--| 
|--0--|  |--3--|  ||--5--|  |   |         |-----------0--|



Chorus:

|--0-----0-----0-----0--0---0--0--0--0--0--5--4--2--0--|------|
|--0-----0-----0-----3--3---3--3--3--3--5-----------0--|      | 
|--0-----0-----0-----0--0---0--0--0--0--0-----------0--|      |
|--2--2--2--2--2--2--2--2---0--0--0--0--4-----------2--|      | 
|--2--2--2--2--3--3--3--3---2--2--2--2--5-----------2--|      |
|--0--0--0--0--3--3--3--3---3--3--3--3--5-----------0--|      |   
    Cause you're working    Building a mystery               BiS
          you're working    Building a mystery                |
|--0-----0-----0-----0--0---0--0--0--0------------0---|       |
|--0-----0-----0-----3--3---3--3--3--3------------5---|       |
|--0-----0-----0-----0--0---0--0--0--0----------------|       |
|--2--2--2--2--2--2--2--2---0--0--0--0--4--5--4--(4)--|       |
|--2--2--2--2--3--3--3--3---2--3--2--0--5--5--5--(5)--|       |
|--0--0--0--0--3--3--3--3---3--3--3--3--5--5--5--(5)--|-------| 
   Holding on........        and    Holding it in
   And choosing so.......    carefully





PLEASE SEND ANY CORRECTIONS!!!!





Comments


Popular Sarah Mclachlan tabs & chords
Adia 3 Chords
Full Of Grace 1 Chords
Fumbling Toward Ecstasy Chords
Hold On Chords
In The Arms Of The Angel 3 Chords
Love Come Chords
When She Loved Me Chords
When She Loved Me 1 Chords
When She Loved Me 4 Chords
Building A Mystery Ukulele


Song lyrics



↑ Back to top | Tablatures and chords are parodies/interpretations of the original songs. You may use it for private study, scholarship, research or language learning purposes only
© 2014 AZChords.com Contact us | Privacy policy | DMCA | Add/correct tabs | Request tabs | Top 50 tabs