>
 >
Time To Say Goodbye

Time To Say Goodbye Guitar Tabs

Sarah Brightman - Time To Say Goodbye chords, tabs, tablatures, lyrics

Guitar lessons | Add/correct | Request | Top 50 tabs Artists:  A B C D E F G H I J K L M N O P Q R S T U V W X Y Z 0-9

Time To Say Goodbye Guitar Tabs – Sarah Brightman

CD, Sheet music, Poster

Do you like Time To Say Goodbye? Share with your friends now
TabsTabs v2Tabs v3
Refrain 1:
     G       D          Em7  C     G    D
 e|---------------------------------------------------------------------|
 h|------8~------7-10---8~~~~~~-10s12~----10--13--12--------------------|
 G|--7------------------------------------------------12~---------------|
 D|---------------------------------------------------------------------|
 A|---------------------------------------------------------------------|
 E|---------------------------------------------------------------------|

         C                          G      C              D7
 e|-15---14-------15---14-----------------------------------------------|
 h|---------15------------15---12---15~~--------------------------------|
 G|----------------------------------------14---17---16---14------------|
 D|------------------------------------------------------------17---16--|
 A|---------------------------------------------------------------------|
 E|---------------------------------------------------------------------|

Verse 1:
                            C/D                 Gsus  G
 e|---------------------------------------------------------------------|
 h|---------------------------------------------------------------------|
 G|---------------------------------------------------------------------|
 D|----------------4-----4--5--4--5--7--5--7--9s10~---9~----------------|
 A|-3--5--7--5--7-----7-------------------------------------------------|
 E|---------------------------------------------------------------------|

    C           D           C/E         D/F#  Gsus    G
 e|---------------------------------------------------------------------|
 h|---------------------------------------------------------------------|
 G|---------------------------------------------------------------------|
 D|----------------4-----4--5--4--5--7--5--7--9s10~---9~----------------|
 A|-3--5--7--5--7-----7-------------------------------------------------|
 E|---------------------------------------------------------------------|

    Dsus   D      C/E Em C     D  G       D/F#         Em7
 e|---------------------------------------------------------------------|
 h|---------------------------------------------------------------------|
 G|---------------------------------------------------------------------|
 D|-------------9s10--9-----------------------------------------------9-|
 A|-10-8-7-8-------------7--7--8-----7-----------10-8-------------------|
 E|-------------------------------10--10--10--10-------10-10-10-10-10---|

    C     D    G             D/F#        Em7      C        D
 e|---------------------------------------------------------------------|
 h|---------------------------------------------------------------------|
 G|---------------------------------------------------------------------|
 D|-10----------------------------------------7-9-10--------------------|
 A|----10-10-8----------7--------10-8-10-7-----------10-10-10-8~--------|
 E|------------10--10-----10-10-----------------------------------------|

Refrain 2:

    G       D          Em7  C     G    D
 e|---------------------------------------------------------------------|
 h|------8~------7-10---8~~~~~~-10s12~----10--13--12--------------------|
 G|--7------------------------------------------------12~---------------|
 D|---------------------------------------------------------------------|
 A|---------------------------------------------------------------------|
 E|---------------------------------------------------------------------|

         C                          G      C              D7
 e|-15---14-------15---14-----------------------------------------------|
 h|---------15------------15---12---15~~--------------------------------|
 G|----------------------------------------14---17---16---14------------|
 D|------------------------------------------------------------17---16--|
 A|---------------------------------------------------------------------|
 E|---------------------------------------------------------------------|





Comments


Popular Sarah Brightman tabs & chords
Amigos Para Siempre (Friends For Life) Chords
Les Fleurs Du Mal Chords
Les Fleurs Du Mal 1 Chords
Once In A Lifetime Chords
Winter In July Chords
Time To Say Goodbye 1 Tabs
Time To Say Goodbye 2 Tabs
Amigos Para Siempre Friends For Life Ukulele
Les Fleurs Du Mal Ukulele
Once In A Lifetime Ukulele


Song lyrics



↑ Back to top | Tablatures and chords are parodies/interpretations of the original songs. You may use it for private study, scholarship, research or language learning purposes only
© 2014 AZChords.com Contact us | Privacy policy | DMCA | Add/correct tabs | Request tabs | Top 50 tabs