» » »

Fleurs Du Mal Bass tabs (ver.1)

Artists:  A B C D E F G H I J K L M N O P Q R S T U V W X Y Z # 

Fleurs Du Mal Bass tabs (ver.1)

Sarah Brightman
Rating:
0/5 (0 votes)

Hard to play? Try these video lessons and learn fast.
                (Live)
Fleurs Du Mal - Sarah Brightman
Symphony: Live in Vienna


Standard tuning (EADG)

Intro (0:25)
 G|----------------|----------------|----------------|----------------|      |----------------|
 D|----------------|----------------|----------------|----------------|      |----------------|
 A|----------------|--------3---3---|----------------|----------------| x4   |----------------|
 E|5---5---5---5---|5---5-----------|3---3---3---3---|3---3---0---3---|      |5~--------------|

(no bass)

Pre-chorus 1 (1:32)
 G|----------------|----------------|----------------|----------------|
 D|----------------|----------------|----------------|----------------|
 A|----------------|----------------|----------------|----------------|
 E|/5~-------------|----------------|1---------------|3---------------|

 G|----------------|----------------|----------------|----------------|
 D|----------------|----------------|----------------|----------------|
 A|----------------|------------3---|----------------|----------------|
 E|5~--------------|----------------|1---------------|3---------------|

Chorus (1:52)
 G|----------------|----------------|----------------|----------------|      |----------------|
 D|----------------|----------------|----------------|----------------|      |----------------|
 A|----------------|--------3---3---|----------------|----------------| x2   |----------------|
 E|5---5---5---5---|5---5-----------|3---3---3---3---|3---3---0---3---|      |5~--------------|

(no bass)

Pre-chorus 2 (2:36)
 G|----------------|
 D|------------7h10|
 A|----------------|
 E|----------------|

 G|----------------|----------------|----------------|----------------|
 D|----------------|----------------|----------------|----------------|
 A|----------------|------------3---|----------------|----------------|
 E|\5~-------------|----------------|1---------------|3---------------|

 G|----------------|----------------|----------------|----------------|
 D|----------------|----------------|----------------|----------------|
 A|----------------|----------------|----------------|----------------|
 E|5~--------------|----------------|1---------------|3---------------|

Chorus (2:59)

Bridge (3:19)
 G|----------------|----------------|----------------|----------------|
 D|----------------|----------------|----------------|----------------|
 A|----------------|--------3---3---|----------------|----------------| x2
 E|1---1---1---1---|1---1-----------|3---3---3---3---|3---3---0---3---|

Chorus (3:39)

Outro (3:59)
 G|----------------|----------------|----------------|----------------|
 D|----------------|----------------|----------------|----------------|
 A|----------------|----------------|----------------|----------------|
 E|5~--------------|3~--------------|1~--------------|0~--------------|
            
Hard to play? Try these video lessons and learn fast. | Correct




comments powered by Disqus
↑ Back to top | Tablatures and chords are parodies/interpretations of the original songs. You may use it for private study, scholarship, research or language learning purposes only