» » »

Amazing Things Tabs (ver.1)

Artists:  A B C D E F G H I J K L M N O P Q R S T U V W X Y Z # 

Amazing Things Tabs (ver.1)

Sarah Blasko
Rating:
0/5 (0 votes)

Hard to play? Try these video lessons and learn fast.
                (Intro)
Dont know if it is 100% correct but it sounds just like it!
my first tab . dont judge me.


let the notes ring and listen to the song to figure
out when to come in.

e---1----------1-----------1--------1------------------|
B-----2----------2-----------2--------2----------------|
G-------3----------1-----------3--------1--------------|
D-----------------------------------------------(2)----|
A------------------------------------------------------|
E------------------------------------------------------|

e-------8-7-----8-7----5-4----8-7---8-7---5-4-----------|
B-------------------------------------------------------|
G-------------------------------------------------------|
D-------------------------------------------------------|
A-------------------------------------------------------|
E-------------------------------------------------------|
            
Hard to play? Try these video lessons and learn fast. | Correct




comments powered by Disqus
↑ Back to top | Tablatures and chords are parodies/interpretations of the original songs. You may use it for private study, scholarship, research or language learning purposes only