» » »

Sarah Bettens, Someone To Say Hi To Tabs (ver.1)

Artists:  A B C D E F G H I J K L M N O P Q R S T U V W X Y Z # 

Someone To Say Hi To Tabs (ver.1)

Sarah Bettens Tabs
 Rating:
4/5 (4 votes)
Someone To Say Hi To lessons Tabs too difficult? Try these video lessons and learn fast
                !!CAPO ON 2ND FRET!!


Intro:

   E                 E/D               A/C#              E/B

e|-----0-------0---|-----0-------0---|-----0-------0---|-----0-------0---|
B|---0---0---0---0-|---0---0---0---0-|-----------------|---0---0---0---0-|
G|-----------------|-----------------|---2---2---2---2-|-----------------|
D|-2-------2-------|-0-------0-------|-----------------|-----------------|
A|-----------------|-----------------|-4-------4-------|-2-------2-------|
E|-----------------|-----------------|-----------------|-----------------|

Riff 1:

   B

e|-----------------|
B|-----4-------4---|
G|---4---4---4---4-|
D|-----------------|
A|-2-------2-------|
E|-----------------|

Verse 1, 4x: intro

Riff 1

Chorus:

   E                 E/A               E/B               B

e|-----0-------0---|-----0-------0---|-----0-------0---|-----------------|
B|---0---0---0---0-|---0---0---0---0-|---0---0---0---0-|-----4-------4---|
G|-----------------|-----------------|-----------------|---4---4---4---2-|
D|-2------2--------|-----------------|-----------------|-----------------|
A|-----------------|-0-------0-------|-2-------2-------|-2-------2-------|
E|-----------------|-----------------|-----------------|-----------------|

   E/G#              A                 E/B               B

e|-----0-------0---|-----0-------0---|-----0-------0---|-----------------|
B|---0---0---0---0-|-----------------|---0---0---0---0-|-----4-------4---|
G|-----------------|---2---2---2---2-|-----------------|---4---4---4---2-|
D|-----------------|-----------------|-----------------|-----------------|
A|-----------------|-0-------0-------|-2-------2-------|-2-------2-------|
E|-4-------4-------|-----------------|-----------------|-----------------|

   E/C#              E/B               E/G#              A

e|-----0-------0---|-----0-------0---|-----0-------0---|-----0-------0---|
B|---0---0---0---0-|---0---0---0---0-|---0---0---0---0-|-----------------|
G|-----------------|-----------------|-----------------|---2---2---2---2-|
D|-----------------|-----------------|-----------------|-----------------|
A|-4-------4-------|-2-------2-------|-----------------|-0-------0-------|
E|-----------------|-----------------|-4-------4-------|-----------------|

   E/C#             E/B               A/D               A/C#

e|-----0-------0---|-----0-------0---|-----5-------0---|-----5-------0---|
B|---0---0---0---0-|---0---0---0---0-|-------5---2---2-|-------5---2---2-|
G|-----------------|-----------------|-----------------|-----------------|
D|-----------------|-----------------|---7-------------|---7-------------|
A|-4-------4-------|-2-------2-------|-5-------5-------|-4-------4-------|
E|-----------------|-----------------|-----------------|-----------------|



Riff 2:

   E                 B

e|-----0-------0---|-----------------|
B|---0---0---0---0-|-----4-------4---|
G|-----------------|---4---4---4---4-|
D|-2-------2-------|-----------------|
A|-----------------|-2-------2-------|
E|-----------------|-----------------|

Chorus

Riff2

Verse 3

Riff2

Chorus

Outro:
Riff 2 + E strum
            
Submit corrections

comments powered by Disqus
↑ Back to top | Sarah Bettens Tabs for Someone To Say Hi To. Lyrics for acoustic guitar and electric guitar. Tablatures and chords are parodies/interpretations of the original songs. You may use it for private study, scholarship, research or language learning purposes only