» » »

Sarah Bettens, Come Over Here Bass tabs (ver.1)

Artists:  A B C D E F G H I J K L M N O P Q R S T U V W X Y Z # 

Come Over Here Bass tabs (ver.1)

Sarah Bettens Tabs
Rating:
3/5 (2 votes)
Come Over Here lessons Tabs too difficult? Try these video lessons and learn fast
                Intro:  (with delay)

g------------------------------------------------------|
D------------------------------------------------------|
A------------------------------------------------------|
E-3-x-3-x-3-x---6--6--6------6-x-6-x-6-x---1--1--1-----|

Verse: (4x)

g------------------------------------------------------|
D------------------------------------------------------|
A------------------------------------------------------|
E-3-x-3-x-3-x---6--6--6------6-x-6-x-6-x---1--1--1-----|

Chorus 1:

g--------------------------------------------------------|
D--------------------------------------------------------|
A---------1~~~~~~--------------1~~~~---------------------|
E-3~~~~-----------1~~~~--3~~~~-------1~~~~---------------|
  Come    Over    Here   Come  Over  Here    Come over Here

Verse: (6x)

g------------------------------------------------------|
D------------------------------------------------------|
A------------------------------------------------------|
E-3-x-3-x-3-x---6--6--6------6-x-6-x-6-x---1--1--1-----|


Chorus 1:

g--------------------------------------------------------|
D--------------------------------------------------------|
A---------1~~~~~~--------------1~~~~---------------------|
E-3~~~~-----------1~~~~--3~~~~-------1~~~~---------------|
  Come    Over    Here   Come  Over  Here    Come over Here

Verse: (2x)

g------------------------------------------------------|
D------------------------------------------------------|
A------------------------------------------------------|
E-3-x-3-x-3-x---6--6--6------6-x-6-x-6-x---1--1--1-----|

Little thingy: (with tremolo, can also pe tremolo picked)

g-12~~~~~~~~~~~~~~~~~~~~~~~~~~~~~~~~-----|
D----------------------------------------|
A----------------------------------------|
E----------------------------------------|
  someone out there... will hate you now....  ...  ...

Chorus 2: (played till the end)

g------------------------------------------------------|
D-5---5---5-----8--8--8------8---8---8-----3--3--3-----|
A------------------------------------------------------|
E-3-x-3-x-3-x---6--6--6------6-x-6-x-6-x---1--1--1-----|

my first tab rate it please
            

comments powered by Disqus
↑ Back to top | Sarah Bettens Bass for Come Over Here. Lyrics for acoustic guitar and electric guitar. Tablatures and chords are parodies/interpretations of the original songs. You may use it for private study, scholarship, research or language learning purposes only