» » »

Sara Bareilles, King Of Anything Tabs (ver.1)

Artists:  A B C D E F G H I J K L M N O P Q R S T U V W X Y Z # 

King Of Anything Tabs (ver.1)

Sara Bareilles Tabs
 Rating:
4.3/5 (6 votes)
King Of Anything lessons Tabs too difficult? Try these video lessons and learn fast
                King of Anything
Sara Bareilles


Capo on 6th Fret

Intro & Verse       

 G		  Am		   E		    C       D
|----------------|--------0-------|----------------|----------------|
|----0---3---0---|----1-------1---|----0---3---0---|----------------|
|0---------------|0---------------|0---------------|0-----0---------|
|----------------|----------------|----------------|----0-----5--4--|
|----------2---0-|----------2-----|----------2---3-|--3-------5--5--|
|3---------------|--------------0-|----------------|----------------|


Pre-Chorus
 Am		  C		   Em		    D
|----------------|----------------|----0-----------|----------------|
|----------------|----1-----------|--0-------------|----3-----------|
|----2-----------|--0-------------|----------------|--2-------------|
|--2-------------|----------------|3---------------|0---------------|
|0---------------|3---------------|----------------|----------------|
|----------------|----------------|----------------|----------------|


Chorus

Em - C - G - D


Bridge

D	 D	   Am
   All my life I tried
	 Em		     C
to make everybody happy while I
	D	 Am
just hurt and hide
	      Am	 G		C   D
Waiting for someone to tell me it's my turn
	  Intro
to decide.
            
Submit corrections

comments powered by Disqus
↑ Back to top | Sara Bareilles Tabs for King Of Anything. Lyrics for acoustic guitar and electric guitar. Tablatures and chords are parodies/interpretations of the original songs. You may use it for private study, scholarship, research or language learning purposes only