>
 >
Some Sense Of Security

Some Sense Of Security Bass Tabs

Saosin - Some Sense Of Security chords, tabs, tablatures, lyrics

Guitar lessons | Add/correct | Request | Top 50 tabs Artists:  A B C D E F G H I J K L M N O P Q R S T U V W X Y Z 0-9

Some Sense Of Security Bass Tabs – Saosin

CD, Sheet music, Poster

Do you like Some Sense Of Security? Share with your friends now
Bass Tabs
intro
g -------------------------------------|
d -------------------------------------|   X2
a ----------------66666666-88888888----|
d 5555555555555555---------------------|

Pre-verse
g --------------------------------------------------------|
d --------------------------------------------------------|
a --------------------------------------------------------|
d 5-5-5-3-5-5-5-6-5-5-5-3-5-5-5-3-5-5-5-3-5-5-5-6-5-5-5-3-|

verse
g ---------------------------------------------------------------|
d ---------------------------------------------------------------|
a --------------------------------666666666666666666666666666668-|
d 55555555555555555555555555555555-------------------------------|

g ------------------------------------------------------------------|
d ------------------------------------------------------------------|
a ------------------------------------------------------------------|
d 55555555555555555555555555555555-6666666666666666-8888888888888888

Pre-chorus
g ---------------------------------------------------------------------|
d ---------------------------------------------------------------------|
a ---------------------------------------------------------------------|
d 1111111111111111-3333333333333333-5555555555555555-77777777-99999999-|

chorus
g -------------------------------------------------|
d -------------------------------------------------|
a --------------------------------6666666666666666-|
d 55555555555555555555555555555555-----------------|

g ------------------------|
d ------------------------|
a 6-66-6-6----6-66-6-6666-|
d ------------------------|

g ---------------------------------------------------------------------|
d ---------------------------------------------------------------------|
a ----------------55555555-11113--------------------11111111-5555-8888-|
d 5555555555555555--------------3-1-1111111111111111-------------------|

Pre-verse
g --------------------------------------------------------|
d --------------------------------------------------------|
a --------------------------------------------------------|
d 5-5-5-3-5-5-5-6-5-5-5-3-5-5-5-3-5-5-5-3-5-5-5-6-5-5-5-3-|

verse
g ---------------------------------------------------------------|
d ---------------------------------------------------------------|
a --------------------------------666666666666666666666666666668-|
d 55555555555555555555555555555555-------------------------------|

g ------------------------------------------------------------------|
d ------------------------------------------------------------------|
a --------------------------------6666666666666666-8888888888888888-|
d 55555555555555555555555555555555----------------------------------|

Pre-chorus
g ---------------------------------------------------------------------|
d ---------------------------------------------------------------------|
a ---------------------------------------------------------------------|
d 1111111111111111-3333333333333333-5555555555555555-77777777-99999999-|

chorus
g -------------------------------------------------|
d -------------------------------------------------|
a --------------------------------6666666666666666-|
d 55555555555555555555555555555555-----------------|

g ------------------------|
d ------------------------|
a 6-66-6-6----6-66-6-6666-|
d ------------------------|

g ---------------------------------------------------------------------|
d ---------------------------------------------------------------------|
a ----------------55555555-11113--------------------11111111-5555-8888-|
d 5555555555555555--------------3-1-1111111111111111-------------------|

Bridge
g ----------------------------------------------|
d ----------------------------------------------|
a ----------------------------------------------|
d 5-5-5-5-----------5-5-----3-3--5~---5-5----55-|

1
g ---------------------------------|
d ---------------------------------|
a ----------------6666666666666666-|
d 5555555555555555-----------------|

2
g ----------------------------------|
d ----------------------------------|
a ----------------66666666-88888888-|
d 5555555555555555------------------|

1
2
1
2

Chorus

Outro
g -------------------------------------|
d -------------------------------------|
a -------------------------------------|
d 5-5-5-5---------5-5-----3-3-5~~~~~~~-|

this should be right, maybe the ones in the song may just be zeros,my bass is fretless, 
it could be off, but should be 97% correct





Comments


Popular Saosin tabs & chords
I Can Tell Bass Tabs
Its Far Better To Learn Bass Tabs
Third Measurement In C Bass Tabs
Changing Chords
Translating The Name 2 Chords
I Never Wanted To 1 Tabs
Sleepers Tabs
Time After Time 1 Tabs
Collapse Ukulele
Plays Pretty For Baby Ukulele


Song lyrics



↑ Back to top | Tablatures and chords are parodies/interpretations of the original songs. You may use it for private study, scholarship, research or language learning purposes only
© 2014 AZChords.com Contact us | Privacy policy | DMCA | Add/correct tabs | Request tabs | Top 50 tabs