>
 >
Mookies Last Christmas 4

Mookies Last Christmas 4 Guitar Tabs

Saosin - Mookies Last Christmas 4 chords, tabs, tablatures, lyrics

Guitar lessons | Add/correct | Request | Top 50 tabs Artists:  A B C D E F G H I J K L M N O P Q R S T U V W X Y Z 0-9

Mookies Last Christmas 4 Guitar Tabs – Saosin

CD, Sheet music, Poster

Do you like Mookies Last Christmas 4? Share with your friends now
Bass TabsChordsChords v2TabsTabs v2Tabs v3Tabs v4Tabs v5Tabs v6Ukulele
----------------------------------------------------------------------------
                Mookies Last Christmas - Saosin
----------------------------------------------------------------------------

Tuning:Dropped D :eBGDAD

1st Verse:(From throat and eyes came winter and reasons I'm told to carry on
Sad overwhelms, my senses drown, oh I feel dependent)

2nd verse:(We count the days left, 23, and all I know, honestly, can I be protected with 
suddenly gone)
e|-------------------------------------------------------------|
B|-------------------------------------------------------------|
G|-4-------4---------------------------------------------------|
D|-4---7---2---7-----------------------------------------------|
A|-2---5---2---5-----------------------------------------------|
D|-----5-------5-----------------------------------------------|

Pre-Chorus:(the feeling that you were honestly gone,I cant't shake it)

e|-------------------------------------------------------------|
B|-------------------------------------------------------------|
G|-----------------x-------------------------------------------|
D|-4---7---4---7---x-------------------------------------------|
A|-2---5---2---5---x-------------------------------------------|
D|-2---5---2---5---x-------------------------------------------|

Chorus:(Make the same mistake twice, bursts of red and green covering me,bring the 
that she loves, I should let it fold over)


e|--------------------------------------------------------------|
B|--------------------------------------------------------------|
G|-4-----------2------------------------------------------------|
D|-4---7---2---2------------------------------------------------|
A|-2---5---0---0------------------------------------------------|
D|-----5---0----------------------------------------------------|

Ending: (Make the same mistake twice)

e|--------------------------------------------------------------|
B|--------------------------------------------------------------|
G|-4------------------------------------------------------------|
D|-4---7(let ring)----------------------------------------------|
A|-2---5--------------------------------------------------------|
E|-----5--------------------------------------------------------|

| /  slide up
| \  slide down
| h  hammer-on
| p  pull-off
| ~  vibrato
| +  harmonic
| x  Mute note
============================================================================





Comments


Popular Saosin tabs & chords
3rd Measurement In C Bass Tabs
Collapse 2 Bass Tabs
Baby Girl Tabs
Finding Home 1 Tabs
Lost Symphonies 3 Tabs
On My Own Tabs
Time After Time 3 Tabs
Voices 1 Tabs
Sleepers Ukulele
What Were We Made For Ukulele


Song lyrics



↑ Back to top | Tablatures and chords are parodies/interpretations of the original songs. You may use it for private study, scholarship, research or language learning purposes only
© 2014 AZChords.com Contact us | Privacy policy | DMCA | Add/correct tabs | Request tabs | Top 50 tabs