» » »

Saosin, Is This Real? Tabs (ver.1)

Artists:  A B C D E F G H I J K L M N O P Q R S T U V W X Y Z # 

Is This Real? Tabs (ver.1)

Saosin Tabs
Rating:
0/5 (0 votes)
Is This Real? lessons Tabs too difficult? Try these video lessons and learn fast
                			     Saosin – Is This Real

Tuning: DADGBE

This it just how I figured out how to play it I don’t think its all correct so 
and comments are welcome.
Thanks.

Verse

e|----------------------------------------------------------------------------|
B|----------------------------------------------------------------------------|
G|----------------------------------------------------------------------------|
D|-------------------------7777777777777777-33333333-00000000-7777777777777777| x2
A|-------------------------7777777777777777-33333333-00000000-7777777777777777|
D|1212-77-1010-55-88-77875-7777777777777777-33333333-00000000-7777777777777777|


Pre-Chorus

e|-----------------------------------------------------------------------------|
B|-----------------------------------------------------------------------------|
G|-----------------------------------------------------------------------------|
D|33333333-1010101010101010-7777777777777777-33333333-00000000-7777777777777777|
A|33333333-1010101010101010-7777777777777777-33333333-00000000-7777777777777777|
D|33333333-1010101010101010-7777777777777777-33333333-00000000-7777777777777777|

e|-----------------------------------------------------------------------------|
B|-----------------------------------------------------------------------------|
G|-----------------------------------------------------------------------------|
D|33333333-1010101010101010-7777777777777777-33333333-00000000-2222222222222222|
A|33333333-1010101010101010-7777777777777777-33333333-00000000-2222222222222222|
D|33333333-1010101010101010-7777777777777777-33333333-00000000-2222222222222222|

Chorus

e|-------------------------------------------------------------------|
B|-------------------------------------------------------------------|
G|-------------------------------------------------------------------|
D|7777777777777777-5555555555555555-0000000000000000-3333333333333333| x2
A|7777777777777777-5555555555555555-0000000000000000-3333333333333333|
D|7777777777777777-5555555555555555-0000000000000000-3333333333333333|


Verse x2
Pre-Chorus
Chorus x2

Bridge

e|---------------------------------------------------------------------------------|
B|---------------------------------------------------------------------------------|
G|---------------------------------------------------------------------------------|
D|9--7-9-9--7-9-9--7-9-9--7-9--7-9-9--7-9-9--7-9-9--7-14-15-1414-12-1414-12-1414-12|x2
A|---7------7------7------7----7—-----7------7------7-14-15-1414-12-1414-12-1414-12|
D|10-7-1010-7-1010-7-1010-7-10-7-1010-7-1010-7-1010-7-14-15-1414-12-1414-12-1414-12|

Breakdown

e|-------------------------------------------|
B|-------------------------------------------|
G|-------------------------------------------|
D|--3---0---3---7-5---3---3---0---3---7-5---7|
A|-3---0---3---7-5---3---3---0---3---7-5----7|
E|3---0---3---7-5---3---3---0---3---7-5-----7|

Rest

Breakdown 2

e|-----------------------------------------------------------------------------|
B|-----------------------------------------------------------------------------|
G|-----------------------------------------------------------------------------|
D|-----------------------------------------------------------------------------|
A|-----------------------------------------------------------------------------|
E|7\---7\---7\---7\---7\---7\---7\---7\---7\---7\---7\---7\---7\---7\---7\---7\|

Chorus

Outro same as chorus

| /  slide up
| \  slide down
| h  hammer-on
| p  pull-off
| ~  vibrato
| +  harmonic
| x  Mute note
            

comments powered by Disqus
↑ Back to top | Saosin Tabs for Is This Real?. Lyrics for acoustic guitar and electric guitar. Tablatures and chords are parodies/interpretations of the original songs. You may use it for private study, scholarship, research or language learning purposes only