» » »

Saosin, I Keep My Secrets Safe Tabs (ver.1)

Artists:  A B C D E F G H I J K L M N O P Q R S T U V W X Y Z # 

I Keep My Secrets Safe Tabs (ver.1)

Saosin Tabs
 Rating:
4/5 (4 votes)
I Keep My Secrets Safe lessons Tabs too difficult? Try these video lessons and learn fast
                
Tuning:Drop D
                                 Intro
e|--------------------------------------------------------------------------|
B|--------------------------------------------------------------------------|
G|--------------------------------------------------------------------------|
D|-5-------555----3------3-----1-------8------12/15-----x2------------------|
A|-5-x13---333----1-x7---3-x6--1--x8---6-x6---------------------------------|
E|-5---------------------3-----1--------------------------------------------|

                                 Chorus
e|--------------------------------------------------------------------------|
B|--------------------------------------------------------------------------|
G|--------------------------------------------------------------------------|
D|-5-------555----3------3-----1-------8------12/15-----x2------------------|
A|-5-x13---333----1-x7---3-x6--1--x8---6-x6---------------------------------|
E|-5---------------------3-----1--------------------------------------------|
                                Breakdown
e|---------------------------------------------------------------------------|
B|---------------------------------------------------------------------------|
G|---------------------------------------------------------------------------|
D|-55--3-55--3--1-1------1-1-----{5----3--5----3-1----3-----}----------------|
A|-55--3-55--3--1-1------1-1--x2-{5x6--3--5-x6-3-1-x7-3-x7--}-----x2---------|
E|-55--3-55--3--1-1------1-1-----{5----3--5----3-1----3-----}----------------|
                                 Chorus
e|--------------------------------------------------------------------------|
B|--------------------------------------------------------------------------|
G|--------------------------------------------------------------------------|
D|-5-------555----3------3-----1-------8------12/15-------------------------|
A|-5-x13---333----1-x7---3-x6--1--x8---6-x6-------------x2------------------|
E|-5---------------------3-----1--------------------------------------------|
                                  Outro
e|--------------------------------------------------------------------------|
B|--------------------------------------------------------------------------|
G|--------------------------------------------------------------------------|
D|--55---55---55---55-55--55--5---------------------------------------------|
A|--55---55---55---55-55--55--5---------------------------------------------|
E|--55---55---55---55-55--55--5---------------------------------------------|

| /  slide up
| \  slide down
| h  hammer-on
| p  pull-off
| ~  vibrato
| +  harmonic
| x  Mute note
            
Submit corrections

comments powered by Disqus
↑ Back to top | Saosin Tabs for I Keep My Secrets Safe. Lyrics for acoustic guitar and electric guitar. Tablatures and chords are parodies/interpretations of the original songs. You may use it for private study, scholarship, research or language learning purposes only