» » »

Saosin, I Have Become What I've Always Hated Tabs (ver.1)

Artists:  A B C D E F G H I J K L M N O P Q R S T U V W X Y Z # 

I Have Become What I've Always Hated Tabs (ver.1)

Saosin Tabs
 Rating:
4/5 (4 votes)
I Have Become What I've Always Hated lessons Tabs too difficult? Try these video lessons and learn fast
1
                
Tuning: Half Step Down

Intro
e----------------------------|
b----------------------------|
d----------------------------|
g---4---0-----4---2---0------|
a---4---0-----4---2---0------|
d---4---0-----4---2---0------|

Verse
e-----------------------------------------------------------|
b-----------------------------------------------------------|
d-----------------------------------------------------------|
g--------------14---------------14------------11-11-11-11---|
a---11-11-12-11---11-11-11-12-11---14-14-14-14--------------|
d-----------------------------------------------------------|

Pre Chorus
e--------------------------------------------|
b--------------------------------------------|
d--------------------------------------------|
g---00000------------------------------------|
a---00000---12p11---12p11---12p11---12p11----|
d---00000--------14------14------14------14--|

Chorus
e----------------------------------|
b----------------------------------|
d---7---2---4----7---4---2---------|
g---4---0---2----4---2---0---------|
a---4---0---2----4---2---0---------|
d---4---0---2----4---2---0---------|

Verse
Pre Chorus
Chorus

Breakdown
e------------------------------|
b------------------------------|
d------------------------------|
g---6667---6667---6667---00000-|
a---4444---4444---4444---00000-|
d---4444---4444---4444---00000-|
                                        *PM
this is played toward the during
e-----------------------------------------------------------------|
b-------------------------5/7-------------------------------------|
d-----------------------------------------------------------------|
g-6667-6667-6667------77------6667-6667-6667-6667------77-6h7p6---|
a-4444-4444-4444---55---------4444-4444-4444-4444---55------------|
d-4444-4444-4444--------------4444-4444-4444-4444-----------------|                 
*PM                             *PM
            
Submit corrections

comments powered by Disqus
↑ Back to top | Saosin Tabs for I Have Become What I've Always Hated. Lyrics for acoustic guitar and electric guitar. 1 Tablatures and chords are parodies/interpretations of the original songs. You may use it for private study, scholarship, research or language learning purposes only