>
 >
Finding Home 1

Finding Home 1 Bass Tabs

Saosin - Finding Home 1 chords, tabs, tablatures, lyrics

Guitar lessons | Add/correct | Request | Top 50 tabs Artists:  A B C D E F G H I J K L M N O P Q R S T U V W X Y Z 0-9

Finding Home 1 Bass Tabs – Saosin

CD, Sheet music, Poster

Do you like Finding Home 1? Share with your friends now
Bass TabsBass Tabs v2ChordsTabsTabs v2Tabs v3Ukulele
Gtr I (E A D G) - 'Untitled'


   Intro
    Q=100
    $
   4/4
    Gtr I
||------------------|-----------------|
||o-----------------|-----------------|
||o-----------------|-----------------|
||--7-7-7-7-7-7-7-7-|-7-7-7-7-7-7-7-7-|


                                             3x
|-------------------------|------------------||
|-------------------------|-----------------o||
|-------------------------|-----------------o||
|-10-10-10-10-10-10-10-10-|-3-3-3-3-3-3-3-3--||


 Pre-Chorus
|-----------------|---------------------|
|-----------------|---------------------|
|-----------------|---------------------|
|-3-3-3-3-3-3-3-3-|-15-15-15-15-3-3-3-3-|


 Chorus
                                                               To Coda
|---------------|---------------------|---------------|----------------|
|---------------|---------------------|---------------|----------------|
|---------------|---------------------|---------------|----------------|
|--7-7-7-(7)----|-10-10-10-10-(10)----|--5-5-5-(5)----|-3-3-3-3-(3)----|
  ^(rest) & 2 & (hold) 1 & 2 & (hold)   (rest) & 2 & (hold) 1 & 2 & (hold)   i don't 
thats aligned but if you know what i mean, then, you're good =]

                                       D.S. al Coda
|-------------------------|--------------------------|
|-------------------------|--------------------------|
|-------------------------|--------------------------|
|-15-15-15-15-15-15-15-15-|-15-15-15-15-(15)-15-15S0-|


  &
|---------------|---------------------|---------------|----------------|
|---------------|---------------------|---------------|----------------|
|---------------|---------------------|---------------|----------------|
|--7-7-7-(7)----|-10-10-10-10-(10)----|--5-5-5-(5)----|-3-3-3-3-(3)----|

Breakdown
|-----------------|------------------|-----------------|------------------|
|-----------------|------------------|-----------------|------------------|
|-----------------|------------------|-----------------|------------------|
|-3-3-3-3-3-3-3-3-|--5-5-5-5-5-5-5-5-|-7-7-7-7-7-7-7-7-|-7-7-7-7-7-7-7-7--|


|-----------------|-----------------|
|-----------------|-----------------|
|-----------------|-----------------|
|-3-3-3-3-3-3-3-3-|-5-5-5-5-5-5-5-5-|


|-----------------|-------------------------|
|-----------------|-------------------------|
|-----------------|-------------------------|
|-7-7-7-7-7-7-7-7-|-10-10-10-10-10-10-10-10-|


rest for the bridge
|---------|-----|
|---------|-----|
|---------|-----|
|---------|-----|

Out Chorus
   4/4
||----------------|---------------------|---------------|---------------||
||o---------------|---------------------|---------------|--------------o||
||o---------------|---------------------|---------------|--------------o||
||---7-7-7-(7)----|-10-10-10-10-(10)----|--5-5-5-(5)----|-3-3-3-3-(3)---||

Outro
|---------------|-------------------|---------------|-------------------|
|---------------|-------------------|---------------|-------------------|
|---------------|-------------------|---------------|-------------------|
|-7--7-7-(7)----|-10--10-10-(10)----|-7--7-7-(7)----|-10--10-10-(10)----|


|-----------------|----------------------|-------------------|-------|
|-----------------|----------------------|-------------------|-12----|
|-----------------|----------------------|-------------------|-------|
|-7--7-7-7-(7)----|-10--10-10-10-(10)----|-10--10-10-10-(10)-|-------|


--------------------------------------------------------------------------------


Tablature Legend
----------------
 h   - hammer-on
 p   - pull-off
 b   - bend
 pb  - pre-bend
 r   - bend release (if no number after the r, then release immediately)
 /\  - slide into or out of (from/to "nowhere")
 s   - legato slide
 S   - shift slide
 - natural harmonic
[n]  - artificial harmonic
n(n) - tapped harmonic
 ~   - vibrato
 tr  - trill
 T   - tap
 TP  - trem. picking
 PM  - palm muting
\n/  - tremolo bar dip; n = amount to dip
 \n  - tremolo bar down
 n/  - tremolo bar up
/n\  - tremolo bar inverted dip
 =   - hold bend; also acts as connecting device for hammers/pulls
 <> - volume swell (louder/softer)
 x   - on rhythm slash represents muted slash
 o   - on rhythm slash represents single note slash





Comments


Popular Saosin tabs & chords
Collapse 2 Bass Tabs
Bury Your Head (Acoustic) Chords
Follow And Feel Chords
Penelope Tabs
Plays Pretty For Baby Tabs
Seven Years 5 Tabs
Voices 1 Tabs
Why Cant You See Tabs
Youre No Angel Tabs
Youre Not Alone 3 Tabs


Song lyrics



↑ Back to top | Tablatures and chords are parodies/interpretations of the original songs. You may use it for private study, scholarship, research or language learning purposes only
© 2014 AZChords.com Contact us | Privacy policy | DMCA | Add/correct tabs | Request tabs | Top 50 tabs