» » »

Sanz Alejandro, Toca Para Mi Tabs (ver.1)

Artists:  A B C D E F G H I J K L M N O P Q R S T U V W X Y Z # 

Toca Para Mi Tabs (ver.1)

Sanz Alejandro Tabs
Rating:
0/5 (0 votes)
Toca Para Mi lessons Tabs too difficult? Try these video lessons and learn fast
                Alejandro Sanz, MTV Unplugged 2001


Intro: C  F  Bb  C  F  Bb

e--------------8----5--------------------| 
B---5---6---8----8-----8---6---5------5--|                    ######################
G---------------------------------7------|                    ### por Andre Choi ###
D----------------------------------------|                    ######################
A----------------------------------------|
E----------------------------------------|


e------------------8-----5---------------------|
B---5--6--5--6--8-----8-----8---6---5----------|
G--------------------------------------7--5----|
D----------------------------------------------|
A----------------------------------------------|
E----------------------------------------------|


C         G               Am             Em                 F                           G   
   Como cada tarde estaba,   en el parque para tocar su viejo y cansado instrumento.

C              G              Am              Em                    F               
   En el mismo banco sentado,    una manta en el suelo a su lado, dispuesto a dar el lado 
                                                      G
bueno y aunque ya se venga menos me regala una balada solo por una mirada

C               G              Am             Em              F
   De sus anios de experiencia    y de anecdotas me cuenta yo finjo creerle asi me gusta 

                                  G
verlo feliz contando aventuras y creyendo ser un piolin

C      G         Am       Em 
  toca para mi,     yo te quiero oir.

F                     C           F                           G
quiero forma parte de tu locura pondremos nuestras almas de partitura


C      G         Am       Em 
  toca para mi,    yo te quiero oir.

          F               C                  F                    G
y que el ultimo latido de tu corazon, sea la rosa que brota de la ultima nota.


e--------------8----5--------------------|
B---5---6---8----8-----8---6---5------5--|
G---------------------------------7------|
D----------------------------------------|
A----------------------------------------|
E----------------------------------------|


e------------------8-----5---------------------|
B---5--6--5--6--8-----8-----8---6---5----------|
G--------------------------------------7--5----|
D----------------------------------------------|
A----------------------------------------------|
E----------------------------------------------|


C                 G           Am            Em              F
   Hay gente que rie al verle    con su pajarita verde sus pantalones ya roidos y unas 

                                              G
flores que ha cojido adornando una camisa que ha cosido muy deprisa.

C           G           Am           Em         F         
   El loco maestro toca    con una dulcura loca y se posa una paloma en sus sapatos de goma 

                      G
nadie rie nadie habla los que de ti se burlaban.

C              G            Am                Em               F
   Se va recostando y habla    de lo dura que es la tabla que ha dejado de finjir no quiero

                                      G
verle sufrir contando aventuras y creyendose un piolin

C      G        Am       Em
  toca para mi,   yo te quiero oir

F                     C            F                        G
quiero forma parte de tu locura pondremos nuestras almas de partitura

C      G        Am        Em
  toca para mi,   yo te quiero oir

         F                C                 F                    G
y que el ultimo latido de tu corazon sea la rosa que brota de la ultima nota.

C      G        Am        Em      F  C  F  G
  toca para mi,   yo te quiero oir

C      G        Am        Em
  toca para mi,   yo te quiero oir

         F                C                 F                    G
y que el ultimo latido de tu corazon sea la rosa que brota de la ultima nota.


Ending: C F Bb, C F Bb

# ICQ: 39885942
# Alejandro Sanz, MTV Unplugged 2001 por Andre Choi.
            

comments powered by Disqus
↑ Back to top | Sanz Alejandro Tabs for Toca Para Mi. Lyrics for acoustic guitar and electric guitar. Tablatures and chords are parodies/interpretations of the original songs. You may use it for private study, scholarship, research or language learning purposes only