>
 >
Dusty Road

Dusty Road Guitar Tabs

Santos Paolo - Dusty Road chords, tabs, tablatures, lyrics

Guitar lessons | Add/correct | Request | Top 50 tabs Artists:  A B C D E F G H I J K L M N O P Q R S T U V W X Y Z 0-9

Dusty Road Guitar Tabs – Santos Paolo

CD, Sheet music, Poster

Do you like Dusty Road? Share with your friends now
Tabs
********************************************************************
1/8/2004


TITLE :	Dusty Road(acoustic)
TUNING: Standard tuning

This tab is 99% accurate!!!!!

legend: h=hammer; p=pull off; s=slide; ^=tap


INTRO:                        
                                 A7sus    A7	   Dm
E---------------------------------------------------------1--------------------|
B--3--------------1-----0-----------3--------3------------1--1-----1---2-------|
G-------------2---------0-----0-----0-----0------------2-----------------------|
D---------1----------------0-----------2------------0------------0---0---------|
A--3--------------------------------0--------0---------------------------------|
E-----------------------0------------------------------------------------------|

     	
E----------------------------------------0-------------------------------------|
B----------0-----0---------0----------1-----1---------------3------------------|
G--------0-------0-----0-----------2------------------0h2----------------------|
D------0-------0-----0---0-------3------------------0--------------------------|
A-----------------------------3------------------------------------------------|
E--0------------------------------------------0--3-----------------------------|


Verse1:
	Carry on, bear the heavy load...
E---------------------------------------------------------------------1--------|
B-----------3-----------1--------------0-----3---------2-----------1-----------|
G--------0-----------2--------------0--------------0------------2-----------0--|
D-----2-----------1--------------0--------------2------------0--------------2--|
A--3-----------------------------------------0---------0-----------------------|
E-----------------------------0---------------------------------------------0--|

     F
E---------------------|
B---------------------|
G--2--2---2-----0-----|
D--3--3---3-----0-----|
A---------------------|
E--1------1-----3-----|

Verse2:
	Like the blackbird, fliyin in the night...
E--------------------------2-------------------------------------------------1--|
B-----------1-----------1-------------------0--------3---------2----------1-----|
G--------0-----------2-----------------0----------0--------0-----------2--------|
D-----2-----------1-----------------0----------0--------2-----------0-----------|
A--3-------------------------------------------------0---------0----------------|
E--------------------------------0----------------------------------------------|


E-----------------------------------------------|
B--1--------------------------------------------|
G--------0--0--0----0--0---0--2--2----2-----0---|
D-----0-----2--2----2--2---2--3--3----3-----0---|
A-----------------------------------------------|
E-----------0----0-----0-0----1----1--------3---|

Refrain:

	It's a typical dream that's never ended...
E-------------------1--------------------1---------------------1----------------|
B-------------------1---3----------------1---3-----------------1---3------------|
G-----1--------1--------3----1--1---1--------3----1--1----1--------3------------|
D-----3--------3-------------3--3---3-------------3--3----3---------------------|
A-------------------1---3----------------1---3-----------------1---3------------|
E--1-----1--1----------------1----1-1-------------1-----1-1---------------------|

Verse3:
	through the dark years...
(strum)  
E--x------x------x----------------------1------x------1----------------------|
B--3------1------x------3--------2------1------x------1----------------------|
G--x------2------0------------0---------2------0------2------0------2-----0--|
D--2------1------0---------2------------0------0------3------0---------0-----|
A--3------x------x------0--------0------0------x------3----------------------|
E--x------x------0-----------------------------0------1------3---------------|

Verse:4	
	Lots of people are gonna put you down...
(strum)
E---------x------x------0---0---1------x------1-------x----------------------|
B--1------1------x------1---1---1------x------1-------x----------------------|
G--0------2------0------2---0---2------0------2-------0----------------------|
D--2------1------0------3---2---0------2------3-------0----------------------|
A--3------x------x------x---x---0------x------3-------x----------------------|
E---------x------0------x---x----------0------1-------3----------------------|

Refrain2:
	Its a typical dream.....
E--1------1------3---|      ----1------
B--1------1------3---| 	    ----1------
G--1------3------3---|      ----1------
D--3------3------3---|(3X)  ----3------
A--3------1------3---|      ----3------
E--1-----------------|      ----1------

Refrain3:	
	Its typical dream thats never ending...
E--4------6------6---|      ----4------
B--4------6------6---|      ----4------
G--4------6------6---|      ----4------
D--6------8------6---|(3x)  ----6------
A--6------8------6---|      ----6------
E--4------6----------|      ----4------

Refrain4:
When you know the fight is over.... If u wanna go where youre goin'  
E--1----3----4----6-----------------0----0----0----0-----------|
B--1----3----4----6-----------------1----0----1-------1--------|
G--1----3----5----7-----------------2----0----2----------2-----|
D--3----5----6----8-----------------3----2----3-------------3--|
A--3----5----6----8-----------------0----2----0----------------|
E--1----3----4----6----------------------0---------------------|

Bridge:                                                     (strum)
E-----------------------------------------------------1------3---3----|
B--1-----------3-------3----------1-----1----1--1-----1------3---3----|
G--------0----------0----------2--------2----2--2-----2------5---4----|
D-----2-----2-----2------2--1--------1-----1-------1--3------0---0----|
A--3--------------------------------------------------3------5---5----|
E-----------------------------------------------------1------3---3----|

Verse5:
Gonna bear the heavy load......
E--0----0----1----3--|
B--1----1----1----3--|
G--0----2----2----4--|
D--2----1----3----5--|(6x)
A--3----0----3----5--|
E------------1----3--|

Last part:
E----------------------------------------------------------------0------------|
B--3-----------3-----3--------3---------0------------1--1------------1--------|
G--------------------------0---------0----------2-------------2---------2-----|
D-----5-----5-----5-----2---------2--------1---------------3---------------3--|
A--------5-----------3----------------------------------3---------------------|
E-----------------------------------------------------------------------------|

E--0---1----------------0-|
B--1---1-------------1----|
G--2---2----------0-------|
D--3-----------2----------|
A-----------3-------------|  
E-------------------------|


*****************************
keepin it gangsta!! wattup!!!
*****************************





Comments


Popular Santos Paolo tabs & chords
Daisy Jane Chords
Fool Chords
Lost In You Chords
Maybe Chords
Real Thing Chords
Because Of You Totomicsclan Tabs
Come On Home Tabs
Itsumo Tabs
Overjoyed 2 Tabs
True Tabs


Song lyrics



↑ Back to top | Tablatures and chords are parodies/interpretations of the original songs. You may use it for private study, scholarship, research or language learning purposes only
© 2014 AZChords.com Contact us | Privacy policy | DMCA | Add/correct tabs | Request tabs | Top 50 tabs