>
 >
Close

Close Guitar Tabs

Santos Paolo - Close chords, tabs, tablatures, lyrics

Guitar lessons | Add/correct | Request | Top 50 tabs Artists:  A B C D E F G H I J K L M N O P Q R S T U V W X Y Z 0-9

Close Guitar Tabs – Santos Paolo

CD, Sheet music, Poster

Do you like Close? Share with your friends now
ChordsTabs
Paolo santos


Standard tuning: (EADGBE)

Capo on 2nd fret

Intro:
Gtr. 1
E--0--0--0----0--0--0-------
B--3--0--3----3--0--3-------
G--0--0--0----0--0--0-------
D--2--0--4----2--0--4-------
A--3--2--5----3--2--5-------
E-----3--5-------3--5-------

Gtr 2..

E---10-----------------------------
B-8----8-7--7h8--------------------
G---------------7--7h9-----7-7h9p7-
D----------------------7h9---------
A----------------------------------
E----------------------------------

E---10---------------------------------
B-8----8-7--7h8------------------------
G---------------7----------------------
D-----------------7--7h9p7-------------
A---------------------------12sl\------
E--------------------------------------

Verse:
Nothing in life..

Gtr. 1:

E-------0---------0--0h2h3p2--0-2---
B-0--3--3---0--3--3--3--------3-3---
G-0--2--0---0--2--0--0--------0-0---
D-2--0--2---2--0--2--2--------0-0---	play 2x
A-2-----3---2-----3--3--------3-3---
E-0---------0-----------------------

Gtr. 2:

E-0-----------------------
B--3----------------------
G---0-00-----0--0h2p0-----
D--------0h2--------------
A-------------------------
E-------------------------

PreChorus:
Your breath....

Gtr.1:

E-0--0--0----0--0--0----------
B-3--3--0----3--3--0----------
G-0--0--0----0--0--0----------
D-2--4--2----2--4--2----------
A-3--5--2----3--5--2----------
E----5--0-------5--0----------

Gotta move in...

E-0--0--2-----------------
B-1--3--3-----------------
G-0--2--2-----------------
D-2--0--0-----------------
A-0-----------------------
E-------------------------

Gtr.2

E----10--5-7-----10--5-7----8-/-10---
B---8----7-8----8----7-8----8-/-10---
G--9-----7-9---9-----7-9----9-/-11---
D------------------------------------
A------------------------------------
E------------------------------------

Chorus:
Nothing can come between us...

E-0--0--0--0---
B-3--0--3--0---
G-0--0--0--0--- play 3x
D-2--0--4--2---
A-3--2--5--2---
E----3--5--0---

Apart... well it only shows..
E-0*-----------0--------
B-3*-----1-3-3--3-------
G-0*-----0-0-0---2------
D-2*-----2-0-2----0-----
A-3*-----0-2-3----------
E-----------------------
*-hold





Comments


Popular Santos Paolo tabs & chords
Lost In You Chords
Princess 2 Chords
Sunlight Chords
Sunny Came Home Chords
Cool With You Tabs
Fool Tabs
For You Tabs
Ill Be Tabs
In My Life Tabs
Love Song For No One Tabs


Song lyrics



↑ Back to top | Tablatures and chords are parodies/interpretations of the original songs. You may use it for private study, scholarship, research or language learning purposes only
© 2014 AZChords.com Contact us | Privacy policy | DMCA | Add/correct tabs | Request tabs | Top 50 tabs