» » »

You'll Find A Way Tabs (ver.1)

Artists:  A B C D E F G H I J K L M N O P Q R S T U V W X Y Z # 

You'll Find A Way Tabs (ver.1)

Santogold
Rating:
0/5 (0 votes)

Hard to play? Try these video lessons and learn fast.
                -------------------------------------------------------------------------------
-------------------------------------------------------------------------------


INTRO


e|-------9----------7--------|
B|-------9----------7--------|
G|-------9----------7--------|
D|-------9----------7--------|
A|---------------------------|
E|---------------------------|
       C#m7        Bm7


VERSE

Just play a syncopated (play the chord every second and fourth beat)
chord (above). Watch out for the two beat rest though at the end of each phrase.



CHORUS


e|----------------------------------------------|
B|----------------------------------------------|
G|----------------------------------------------|
D|----------------------------------------------|
A|----------------------------------------------|
E|--99-999-999-999-91212-121212-1277-777-7------|

PM------------------------------------------>



MIDDLE 8


-The guitar doesn't play anything here.

So there you have it!

===============================================================================
            
Hard to play? Try these video lessons and learn fast. | Correct




comments powered by Disqus
↑ Back to top | Tablatures and chords are parodies/interpretations of the original songs. You may use it for private study, scholarship, research or language learning purposes only