» » »

Santogold, You'll Find A Way Bass tabs (ver.1)

Artists:  A B C D E F G H I J K L M N O P Q R S T U V W X Y Z # 

You'll Find A Way Bass tabs (ver.1)

Santogold Tabs
 Rating:
4/5 (4 votes)
You'll Find A Way lessons Tabs too difficult? Try these video lessons and learn fast
1
                YEAR:   2008
TRACK:  2
TUNING: GDAE (standard)


(0:02)
G|-----------------------------------------------|
D|---------6666------6666------6666------7766----|
A|----4444------4444------4444------7777---------|    ×5
E|-----------------------------------------------|
  Go ahead, you know you want it
  You'll have no other way
  You just want to take us down
  Go ahead, I'll be the one hit
  If I can take you, boy,
  It just might throw this town
  Oh oh oh, you want to get it
  You make us bleed, it'll prove there's life somewhere
  And oh no, I want to yell it
  But do we speak or are we just nodding our heads?
  No way, not me
  What you got, it's not for me
  But you'll find a way


(0:37)
G|------------------------------------------|
D|---------6666------6666------6666---------|
A|----4444------4444------4444------7777----|
E|------------------------------------------|
  No way, not me
  What you got, it's not for me


(0:43)
G|-------------------------------------------------------------------------------------|
D|----------------------------------99--999--------------------------------------------|
A|------------------------77--777--7------------------------------77--777--7-----------|
E|----99--999--999--999--9-------------------799--999--999--999--9----------77--777----|
  Don't reach too far
  You will fall over
  Don't be surprised what you discover
  Don't fear your call
  Can't pull us under
  You better watch out, run for cover


(0:55)
G|-----------------------------------------------------------------------------|
D|------------------------------99999999---------------------------------------|
A|----------------7-7--77777777---------------------------77777777-------------|
E|----999999999999-9-9-------------------9999999999999999----------77777777----|
  Don't reach too far
  You will fall over
  Don't be surprised what you discover
  Don't fear your call
  Can't pull us under
  You better watch out, run for cover


(1:06)
G|----------------------------------------------|
D|-------66666-----66666-----66666-----77766----|
A|----444-------444-------444-------777---------|
E|----------------------------------------------|


(1:12)
G|-----------------------------------------------|
D|---------6666------6666------6666------7766----|
A|----4444------4444------4444------7777---------|    ×5
E|-----------------------------------------------|
  Go ahead, I'll be your junkie
  I'll be deplete,
  You can heap all rubbish here
  Go ahead, now dump it on me
  If I go quiet, will the itch go down with me?
  Oh oh oh, you got to get it
  Never mind that, it was never there nowhere
  But oh no, not for a minute
  For now you'll make your bed and it will wait, I swear
  No way, not me
  What you got, it's not for me
  But you'll find a way


(1:42)
G|-------------------------------------|
D|---------6666------6666------6666----|
A|----4444------4444------4444---------|
E|-------------------------------------|
  No way, not me
  What you got, it's not for me


(1:47)
G|--------------------------------------------------------------------------------------|
D|---------------------------------------------------------------------------99--999----|
A|------------------------77--777--7-------------------------------77--777--7-----------|
E|----99--999--999--999--9----------77--777---799--999--999--999--9---------------------|
  Don't reach too far
  You will fall over
  Don't be surprised what you discover
  Don't fear your call
  Can't pull us under
  You better watch out, run for cover


(1:59)
G|-----------------------------------------------------------------------------|
D|-----------------------------------------------------------------------------|
A|----------------7-7--77777777---------------------------77777777-------------|
E|----999999999999-9-9----------77777777-9999999999999999----------77777777----|
  Don't reach too far
  You will fall over
  Don't be surprised what you discover
  Don't fear your call
  Can't pull us under
  You better watch out, run for cover


(2:11) A little bit more relaxed on the speed (and volume) here
G|-----------------------------------------------|
D|---------6666------6666------6666------7766----|
A|----4444------4444------4444------7777---------|    ×3
E|-----------------------------------------------|
  Tell them that they'll get what they wanted, tell them
  Tell them that they'll get what they wanted
  'Til then...
  Tell them that they'll get what they wanted, tell them


(2:29)
G|-------------------------------------|
D|---------6666------6666------6666----|
A|----4444------4444------4444---------|
E|-------------------------------------|
  Tell them that they'll get what they wanted
  'Til then...


(2:35)
G|-------------------------------------------------------------------------------------|
D|----------------------------------99--999---------------------------------99--999----|
A|------------------------77--777--7------------------------------77--777--7-----------|
E|----99--999--999--999--9-------------------799--999--999--999--9---------------------|
  Don't reach too far
  You will fall over
  Don't be surprised what you discover
  Don't fear your call
  Can't pull us under
  You better watch out, run for cover


(2:47)
G|-----------------------------------------------------------------------|
D|-----------------------------------------------------------------------|
A|----------------7-7--77777777---------------------------77777777-------|
E|----999999999999-9-9----------77777777-9999999999999999----------77----|
  Don't reach too far
  You will fall over
  Don't be surprised what you discover
  Don't fear your call
  Can't pull us under
  You better watch out, run for cover
            
Submit corrections

comments powered by Disqus
↑ Back to top | Santogold Bass for You'll Find A Way. Lyrics for acoustic guitar and electric guitar. 1 Tablatures and chords are parodies/interpretations of the original songs. You may use it for private study, scholarship, research or language learning purposes only