» » »

Lights Out Bass tabs (ver.1)

Artists:  A B C D E F G H I J K L M N O P Q R S T U V W X Y Z # 

Lights Out Bass tabs (ver.1)

Santogold
Rating:
4/5 (3 votes)

Tabs too difficult? Try these video lessons and learn fast.
                YEAR:   2008
TRACK:  7
TUNING: GDAE (standard)


(0:03)
G|-----------------------------------------|
D|-----------------------------------------|
A|----0-4-0---------0-5-5-5-5-0-4-4-0-0----|    ×4
E|----------4-2-2-2------------------------|
  Lights out
  Shoot up the station
  TV's dead, where's there to run?


(0:17)
G|----------------------------------------------------------------------------------------|
D|----------------------------------------------------------------------------------------|
A|----00000000-5555-00000000-444-55555-0000-00000000-5555-00000000-4444-5555-9999-0000----|
E|-----------------------------------------0----------------------------------------------|
  Watch everybody come undone
  Lights out
  We'll make it easy
  We'll make it fun
  Won't let them see now, how they had won
  Still, I wait another round


(0:31)
G|---------------------------------------------|
D|---------------------------------------------|
A|-------------5555----------4444-5555---------|   ×2
E|----55555555------55555555-----------5555----|
  Darling
  Don't got to worry, you're locked in tight
  Darling
  Don't got to worry, turn out the light


(0:49)
G|-----------------------------------------|
D|-----------------------------------------|
A|----0-4-0---------0-5-5-5-5-0-4-4-0-0----|    ×2
E|----------4-2-2-2------------------------|
  Wiped out
  No concentration
  They got us basking in a storm


(0:56)
G|----------------------------------------------------------------------------------------|
D|----------------------------------------------------------------------------------------|
A|----00000000-5555-00000000-444-55555-0000-00000000-5555-00000000-4444-5555-9999-0000----|
E|-----------------------------------------0----------------------------------------------|
  I watch it as it loses form
  Wiped out
  They could see me; that's what I want
  A casualty, but I am upfront
  And I know what it's about


(1:11)
G|---------------------------------------------|
D|---------------------------------------------|
A|-------------5555----------4444-5555---------|   ×2
E|----55555555------55555555-----------5555----|
  Darling
  Don't got to worry, you're locked in tight
  Darling
  Don't got to worry, turn out the light


(1:25)
G|-------------------------------------------------------------------------------|
D|----44444444----------44444444----------44444444----------44444444-------------|
A|-------------44444444----------44444444----------44444444----------44444444----|
E|-------------------------------------------------------------------------------|


(1:39)
G|------2-----------------2-----------------2----------------------------------|
D|----44-4--4----2------44-4--4----2------44-4--4----2-------------------------|
A|-------------44-4--4-----------44-4--4-----------44-4--4-2222222222222222----|
E|-----------------------------------------------------------------------------|
  I'm still a-shakin' my head
  The one you can't account for
  I keep just one step ahead
  There's no place to run


(1:53)
G|-----------------------------------------|
D|-----------------------------------------|
A|----0-4-0---------0-5-5-5-5-0-4-4-0-0----|
E|----------4-2-2-2------------------------|


(1:57)
G|---------------------------------------------|
D|---------------------------------------------|
A|-------------5555----------4444-5555---------|   ×2
E|----55555555------55555555-----------5555----|
  Darling
  Don't got to worry, you're locked in tight
  Darling
  Don't got to worry, turn out the light


(2:25)
G|---------------------------------------------|
D|---------------------------------------------|
A|-------------5555----------4444-5555---------|   ×4
E|----55555555------55555555-----------5555----|
  Darling
  Don't got to worry, you're locked in tight
  Darling
  Don't got to worry, turn out the light
  Darling
  Don't got to worry, you're locked in tight
  Darling
  Don't got to worry, turn out the light
            
Tabs too difficult? Try these video lessons and learn fast.




comments powered by Disqus
↑ Back to top | Tablatures and chords are parodies/interpretations of the original songs. You may use it for private study, scholarship, research or language learning purposes only