» » »

Santo And Johnny, Sleepwalk Tabs (ver.1)

Artists:  A B C D E F G H I J K L M N O P Q R S T U V W X Y Z # 

Sleepwalk Tabs (ver.1)

Santo And Johnny Tabs
 Rating:
3/5 (47 votes)
Sleepwalk lessons Tabs too difficult? Try these video lessons and learn fast
                ----------------------------------------------------------------------
----------------------------------------------------------------------

Rhythm Guitar Chords: C,A,F,G

Standard Tunning (EADGBE)

Intro:

E|---------5-5-5---------------------10/12-8---------------|
B|-5-5-5---5-5-5----------------8/10-----------------------|
G|-5-5-5-----------1-1-1-1-1-4-----------------2--2--2-2-4-|
D|-----------------3-3-3-3-3-5-----------------3--3--3-3-5-|
A|---------------------------------------------------------|
E|---------------------------------------------------------|

Verse:

E|--------------------------------------------------------0h3p0-----|
B|-11/13---8---6-8-9---8--6--11/13---8---6-8-9---8--6--8--------1---|
G|-------------7-9-10--9--7--------------7-9-10--9--7--9----------2-|
D|------------------------------------------------------------------|
A|------------------------------------------------------------------|
E|------------------------------------------------------------------|

E|----------------------10/12-8--------------------------------------|
B|-1-1-5--5--5-5-5-8/10-----------------------11/13--8--6-8-9---8--6-|
G|-2-2-5--5--5-5-5---------------2--2--2-2-4------------7-9-10--9--7-|
D|-------------------------------3--3--3-3-5-------------------------|
A|-------------------------------------------------------------------|
E|-------------------------------------------------------------------|

E|---------------------------0h3p0-----------------------------------|
B|-11/13--8--6-8-9---8--6--8-------1----1-1-5--5--5-5----------------|
G|-----------7-9-10--9--7--9---------2--2-2-5--5--5-5-5--2--2--2-2-5-|
D|----------------------------------------------------5--3--3--3-3-5-|
A|-------------------------------------------------------------------|
E|-------------------------------------------------------------------|

E|---------12-12--10-8------12--10--8--------------0------|
B|---10----------------9--------------8-8----10------8----|
G|-5----------------------------------9-9----9-------9----|
D|--------------------------------------------------------|
A|--------------------------------------------------------|
E|--------------------------------------------------------|

E|---------12--10-5/8-----12--10--8---------------------|
B|---10---------------9-------------8-8--8-10--10--10-8-|
G|-5--------------------------------9-9--9-9---9---9--9-|
D|------------------------------------------------------|
A|------------------------------------------------------|
E|------------------------------------------------------|

E|-------------------------------------------------------0h3p0-------|
B|-11/13---8---6-8-9---8--6--11/13--8---6-8-9---8--6--8--------1-----|
G|-------------7-9-10--9--7-------------7-9-10--9--7--9----------2-2-|
D|-------------------------------------------------------------------|
A|-------------------------------------------------------------------|
E|-------------------------------------------------------------------|

E|---------------------------24\19--------------------6------|
B|-1-1-5--5--4--3------20/22-----------6------12------6------|
G|-2-2-5--5--5--4----------------------6------12------6------|
D|-------------------------------------6------11------6------|
A|-------------------------------------8------12------8------|
E|-------------------------------------9------12------9------|

End Of Song:

======================================================================
            
Submit corrections

comments powered by Disqus
↑ Back to top | Santo And Johnny Tabs for Sleepwalk. Lyrics for acoustic guitar and electric guitar. Tablatures and chords are parodies/interpretations of the original songs. You may use it for private study, scholarship, research or language learning purposes only