>
 >
Sideways

Sideways Guitar Tabs

Santana Carlos - Sideways chords, tabs, tablatures, lyrics

Guitar lessons | Add/correct | Request | Top 50 tabs Artists:  A B C D E F G H I J K L M N O P Q R S T U V W X Y Z 0-9

Sideways Guitar Tabs – Santana Carlos

CD, Sheet music, Poster

Do you like Sideways? Share with your friends now
Tabs
h = hammer on
p = pull of
b = bend
~ = vibrato

Intro: 0:03
|-12------------------------------|
|----12-10----10-8h10-10b11b10b11-|
|----------12---------------------|
|---------------------------------|
|---------------------------------|
|---------------------------------|

|-10-12-15-12b13b12b13-15b17b15-|
|-------------------------------|
|-------------------------------|
|-------------------------------|
|-------------------------------|
|-------------------------------|

|-12-----------------------|
|----12p10-10------10------|
|-------------12-9----9-12-|
|--------------------------|
|--------------------------|
|--------------------------|

|----------------------|
|----------------------|
|-9--------------------|
|---12-9h12p9-----9----|
|--------------12---12-|
|----------------------|

Verse: 0:19

You know it ain't easy
|---------------------|
|-10b12-10------10----|
|----------12-9----12-|
|---------------------|
|---------------------|
|---------------------|

For these thoughts here to leave me
|-------------------|
|-10b12-10----10----|
|----------12----12-|
|-------------------|
|-------------------|
|-------------------|

There are no words to describe it
|---------------------|
|-10b12-10------10----|
|----------12-9----12-|
|---------------------|
|---------------------|
|---------------------|

In French or in English
|---------------------------------------|
|------10-10b12-10------10b12-10-----10-|
|-9-12-------------12-9----------12~----|
|---------------------------------------|
|---------------------------------------|
|---------------------------------------|

Cause diamonds they fade
|-10b12~~~-10p7-|
|---------------|
|---------------|
|---------------|
|---------------|
|---------------|

And flowers they bloom
|-12b15-15-12b15-|
|----------------|
|----------------|
|----------------|
|----------------|
|----------------|

And I'm telling you
|-17b19-17-15-12-15-17-18b20p15-|
|-------------------------------|
|-------------------------------|
|-------------------------------|
|-------------------------------|
|-------------------------------|

Chorus: 0:50

That these feelings won't go away
|--------|
|-10b12~-|
|--------|
|--------|
|--------|
|--------|

They've been knockin me sideways
|--------------|
|-10b12b11b12~-|
|--------------|
|--------------|
|--------------|
|--------------|

They've been knockin me out litely
|-12b15-10-------------|
|-10b12----12-10-10----|
|-------------------12-|
|----------------------|
|----------------------|
|----------------------|

Whenever you come around me
|--------------------|
|-13b15-12-----------|
|----------12-9------|
|---------------9----|
|-----------------12-|
|--------------------|

That these feelings won't go away
|-10b12~-|
|--------|
|--------|
|--------|
|--------|
|--------|

They've been knockin me sideways
|-10b12~-|
|--------|
|--------|
|--------|
|--------|
|--------|

I keep thinking in a moment that
|-17b19-17-15-12-15-17-18b20p15-|
|-------------------------------|
|-------------------------------|
|-------------------------------|
|-------------------------------|
|-------------------------------|

Time will take them away
|-------------------|
|-13b15-12-13-12b13-|
|-------------------|
|-------------------|
|-------------------|
|-------------------|

But these feelings won't go away
|----------------------|
|-10b12-10----10-------|
|----------12----12-12-|
|----------------------|
|----------------------|
|----------------------|

These feelings won't go away
|------------------------------------------------------|
|------10b12-10b12-10b12-10b12-12b15-10----------------|
|-9-12----------------------------------12-9-----------|
|--------------------------------------------12-9----9-|
|-------------------------------------------------12---|
|------------------------------------------------------|

Verse: 1:45
You know it ain't easy
|---------------------|
|-10b12-10------10----|
|----------12-9----12-|
|---------------------|
|---------------------|
|---------------------|

For these thoughts here to leave me
|-------------------|
|-10b12-10----10----|
|----------12----12-|
|-------------------|
|-------------------|
|-------------------|

There are no words to describe it
|---------------------|
|-10b12-10------10----|
|----------12-9----12-|
|---------------------|
|---------------------|
|---------------------|

In French or in English
|-------------------|
|----10----10-12-10-|
|-12----12----------|
|-------------------|
|-------------------|
|-------------------|

Cause diamonds they fade
|-12b15-15-12b15-|
|----------------|
|----------------|
|----------------|
|----------------|
|----------------|


And flowers they bloom
|-17b19-17-15-12-15-17-18b20p15-|
|-------------------------------|
|-------------------------------|
|-------------------------------|
|-------------------------------|
|-------------------------------|


And I'm telling you
|--------------------|
|-13b15-12-----------|
|----------12-9------|
|---------------9----|
|-----------------12-|
|--------------------|

Chorus: 2:15

That these feelings won't go away
|--------|
|-10b12~-|
|--------|
|--------|
|--------|
|--------|

They've been knockin me sideways
|--------------|
|-10b12b11b12~-|
|--------------|
|--------------|
|--------------|
|--------------|

They've been knockin me out litely
|-12b15-10-------------|
|-10b12----12-10-10----|
|-------------------12-|
|----------------------|
|----------------------|
|----------------------|

Whenever you come around me
|--------------------|
|-13b15-12-----------|
|----------12-9------|
|---------------9----|
|-----------------12-|
|--------------------|

That these feelings won't go away
|-10b12~-|
|--------|
|--------|
|--------|
|--------|
|--------|

They've been knockin me sideways
|-12b15-15-12b15-|
|----------------|
|----------------|
|----------------|
|----------------|
|----------------|

I keep thinking in a moment that
|-17b19-17-15-12-15-17-18b20p15-|
|-------------------------------|
|-------------------------------|
|-------------------------------|
|-------------------------------|
|-------------------------------|

Time will take them away
|-------------------|
|-13b15-12-13-12b13-|
|-------------------|
|-------------------|
|-------------------|
|-------------------|

But these feelings won't go away
|---------------------------------------------------------------|
|------10----10b12----10b12----10----10b12----10b12----10b12----|
|-9-12----12-------12-------12----12-------12-------12-------12-|
|---------------------------------------------------------------|
|---------------------------------------------------------------|
|---------------------------------------------------------------|

They've been knocking me sideways
|-----------------------------------|
|-----------------------------------|
|-9-12-9-12-9-12-9-9-12-9-12-9-12-9-|
|-----------------------------------|
|-----------------------------------|
|-----------------------------------|

I keep thinking in a moment that
|-12b15-------------------------------|
|-------12b13-10----10-10h12p10h12p10-|
|----------------12-------------------|
|-------------------------------------|
|-------------------------------------|
|-------------------------------------|

Time will take them away
|-------------------|
|-13b15-12-13-12b13-|
|-------------------|
|-------------------|
|-------------------|
|-------------------|


But these feelings won't go away
|--------|
|-10b12~-|
|--------|
|--------|
|--------|
|--------|

These feelings won't go away
|-12b15-10-------------------|
|-10b12----12-10-10-12-12-10-|
|----------------------------|
|----------------------------|
|----------------------------|
|----------------------------|

Bridge: 3:23

Well diamonds they fade
|-10b12~-|
|--------|
|--------|
|--------|
|--------|
|--------|

Well flowers they bloom
|-12b15-15-12b15-|
|----------------|
|----------------|
|----------------|
|----------------|
|----------------|

Well I'm telling you 
|-12b15-10-------------------------|
|-10b12----14-13-12-13-12-10h12p10-|
|----------------------------------|
|----------------------------------|
|----------------------------------|
|----------------------------------|

Well I'm telling you
|-----------------10-12-|
|-----------10-12-------|
|------9-12-------------|
|-9-12------------------|
|-----------------------|
|-----------------------|

Well diamonds they fade
|-?-|
|-?-|
|-?-|
|-?-|
|-?-|
|-?-|

Well flowers they bloom
|-?-|
|-?-|
|-?-|
|-?-|
|-?-|
|-?-|

Well I'm telling you
|-17b-17-15-|
|-----------|
|-----------|
|-----------|
|-----------|
|-----------|

Well I'm telling you
|-17b-17-15-|
|-----------|
|-----------|
|-----------|
|-----------|
|-----------|

Chorus: 3:57

(Play while singing) These feelings won't go away
|-15-15-15-12-10-15-12~p10-|
|--------------------------|
|--------------------------|
|--------------------------|
|--------------------------|
|--------------------------|

(Play while singing) They've been knocking me sideways
|-15-15-15-12-10-15-10~-10-12-15-12-|
|-----------------------------------|
|-----------------------------------|
|-----------------------------------|
|-----------------------------------|
|-----------------------------------|

(Play while singing) They've been knocking me out litely
|-15-15-15-15-15-15-15-11-11-|
|----------------------------|
|----------------------------|
|----------------------------|
|----------------------------|
|----------------------------|

(Play while singing) When ever you come around me
|-15-15-15-12-10b-10-12-12h15-10-12-10-12-12h15-10-12-10--------------------|
|--------------------------------------------------------12-10h12p12-12-12b-|
|---------------------------------------------------------------------------|
|---------------------------------------------------------------------------|
|---------------------------------------------------------------------------|
|---------------------------------------------------------------------------|

(Play while singing) These feelings won't go away
|-15-15-15-12-10-15-12~p10-|
|--------------------------|
|--------------------------|
|--------------------------|
|--------------------------|
|--------------------------|

(Play while singing) They've been knocking me sideways
|-15-15-15-12-10-15-10~-10-12-15-12-|
|-----------------------------------|
|-----------------------------------|
|-----------------------------------|
|-----------------------------------|
|-----------------------------------|

(Play while singing) They've been knocking me out litely
|-15-15-15-15-15-15-15-11-11-|
|----------------------------|
|----------------------------|
|----------------------------|
|----------------------------|
|----------------------------|

(Play while singing) Time will take them away
|-15h17p15-10-12-15b-15b-15b-10b-12-10b-------------|
|---------------------------------------12-10h12p10-|
|---------------------------------------------------|
|---------------------------------------------------|
|---------------------------------------------------|
|-----------------------------------------inaudible-|

These are the chords for the song:

Em     D      D#dim  Am
|---|  |-2-|  |-2-|  |---|
|---|  |-3-|  |-1-|  |-1-|
|-0-|  |-2-|  |-2-|  |-2-|
|-2-|  |---|  |-1-|  |-2-|
|-2-|  |---|  |---|  |---|
|---|  |---|  |---|  |---| 

Intro: Em|D|D#dim|D

Verse: Em|D|D#dim|D| x2

Chorus: Am|Em|D#dim|D| x2

Interlude: Am|D-D#dim| x2

Verse: Am|D|D#dim|D| x2

Chorus: Am|Em|D#dim|D| x4

Interlude: Am|D-D#dim| x2

Bridge: Am|Em|D#dim|D| x2

Chorus: Am|Em|D#dim|D| x2





Comments


Popular Santana Carlos tabs & chords
Maria Maria Chords
Corazon Espinado Tabs
Curacion Tabs
Do You Like The Way Tabs
Esperando Tabs
Feels Like Fire (Intro Ver 2) Tabs
Hoy Es Adios Tabs
Incident At Neshabur Tabs
Put Your Lights On Tabs
Why Dont You And I Tabs


Song lyrics



↑ Back to top | Tablatures and chords are parodies/interpretations of the original songs. You may use it for private study, scholarship, research or language learning purposes only
© 2014 AZChords.com Contact us | Privacy policy | DMCA | Add/correct tabs | Request tabs | Top 50 tabs