» » »

Santana Carlos, Oye Como Va Tabs (ver.1)

Artists:  A B C D E F G H I J K L M N O P Q R S T U V W X Y Z # 

Oye Como Va Tabs (ver.1)

Santana Carlos Tabs
 Rating:
4/5 (4 votes)
Oye Como Va lessons Tabs too difficult? Try these video lessons and learn fast
                
Symbols:

h=hammer-on
p=pull-off
/=slide-up
\=slide-down
b=bend
r=release bend
[]=bend before picking
()=Let ring
~=Left hand vibrato

Tuning: Standard

CHORDS:
-Am:x77555 
-DMaj:xx0232 and x57775

INTRO:
e|----------8-10----------|----------8-10--------------|
B|-10-10-12------12-8h10--|-10-10-12------12-8-10------|
G|------------------------|-----------------------7-5--|
D|------------------------|----------------------------|
A|------------------------|----------------------------|
E|------------------------|----------------------------|...(x2)
  0:16

e|-5--5-5---5-5-5--5-5-5---5--5---5-5-5-5---5--5--|
B|-5--5-5---5-5-5--5-5-5---7--5---5-5-5-5---7--5--|
G|-5--5-5---5-5-5--5-5-5---7--5---5-5-5-5---7--5--|
D|-7--7-7---7-7-7--7-7-7---7--7---7-7-7-7---7--7--|
A|-7--7-7---7-7-7--7-7-7---5--7---7-7-7-7---5--7--|
E|------------------------------------------------|
  
VERSE:

 Am          DMaj   
"Oye como va,
 
 mi ritmo
Am              DMaj 
 bueno pa' gozar

 mulatta"...............(x2)

e|-5--5-5---5-5-5--5-5-5---5--5---5-5-5-5---5--5--|
B|-5--5-5---5-5-5--5-5-5---7--5---5-5-5-5---7--5--|
G|-5--5-5---5-5-5--5-5-5---7--5---5-5-5-5---7--5--|
D|-7--7-7---7-7-7--7-7-7---7--7---7-7-7-7---7--7--|
A|-7--7-7---7-7-7--7-7-7---5--7---7-7-7-7---5--7--|
E|------------------------------------------------|

SOLO 1:

e|--------------------------|-------------5--------|
B|-----5-8-5-7--------------|-----5-8-5-7---5---5--|
G|---5---------7---5h7p5----|---5---------------5--|
D|-7---------------------7--|-7-----------------5--|
A|--------------------------|----------------------|
E|--------------------------|----------------------|
  0:57

e|------------------------------|---------8------5/8--|
B|-----5-8-5-7------------------|-----5-8---8-7-------|
G|---5---------7-----5-7-7p5----|---5-----------------|
D|-7---------------7---------7--|-7-------------------|
A|------------------------------|---------------------|
E|------------------------------|---------------------|
  1:01

e|-8-8-5-5-8-5--8p5-----5------------------|-8-8p5-5-8p5----5------|
B|------------------7h8--------------------|-------------/7---5----|
G|----------------------------5h7-7-7p5----|--------------------5--|
D|----------------------------5---------7--|-----------------------|
A|-----------------------------------------|-----------------------|
E|-----------------------------------------|-----------------------|
  1:12

e|-8-8-5-5-8p5-8p5---5----------|8-8-5-5-8p5-----5/12--|
B|-----------------8------------|------------/7--------|
G|----------------------5h7--5--|----------------------|
D|----------------------5-------|----------------------|
A|------------------------------|----------------------|
E|------------------------------|----------------------|
  1:19

e|-8p5--8p5--8p5--8p5--8p5---5h8-8p5---8p5--8p5-----------------|
B|--------------------------------------------------------------|
G|------------------------------------------------5h(7)--5h7p5--|
D|--------------------------------------------------------------|
A|--------------------------------------------------------------|
E|--------------------------------------------------------------|
  1:27

e|--------------------------------|
B|--------------5---5-7-----------|
G|-5-5-5-5-5-5--5-5---------------|
D|-----------------------4-5-6-7--|
A|--------------------------------|
E|--------------------------------|...(x3)
  1:34

e|-5-5--5--5--5-5--|
B|-5-5--5--7--7-7--|
G|-5-5--5--7--7-7--|
D|-7-7--7--7--7-7--|
A|-7-7--7--5--5-5--|
E|-----------------|...(x2)

e|-----------------------------|
B|-----7------5------5------5--|
G|---5------5------5------5----|
D|-7------6------5------4------|
A|-----------------------------|
E|-----------------------------|...(x3)

e|-5...(x12)--5-5-5--|
B|-5----------7-7-7--|
G|-5----------7-7-7--|
D|-7----------7-7-7--|
A|-7----------5-5-5--|
E|-------------------|


Chords during this part:
-Am:x77555
-DMaj:xx0232

And then:
e|-5--5-5---5-5-5--5-5-5---5--5---5-5-5-5---5--5--|
B|-5--5-5---5-5-5--5-5-5---7--5---5-5-5-5---7--5--|
G|-5--5-5---5-5-5--5-5-5---7--5---5-5-5-5---7--5--|
D|-7--7-7---7-7-7--7-7-7---7--7---7-7-7-7---7--7--|
A|-7--7-7---7-7-7--7-7-7---5--7---7-7-7-7---5--7--|
E|------------------------------------------------|

VERSE:

 Am          DMaj   
"Oye como va,
 
 mi ritmo
Am              DMaj 
 bueno pa' gozar

 mulatta"...............(x2)

SOLO 2:

e|-5/12~~--8-8p5-5--8p5-8p5---5------------|-8-8-5-5-8p5---7-------------|
B|--------------------------8--------------|-------------7---------------|
G|------------------------------5h7-7-7p5--|-----------------5/7--5h7p5--|
D|------------------------------5----------|----------------------5------|
A|-----------------------------------------|-----------------------------|
E|-----------------------------------------|-----------------------------|


e|-8-8-5-5-8p5--8p5---5------------|-8-8-5-5-8p5------|
B|------------------8--------------|-------------5/7--|
G|----------------------5h7-7-7p5--|------------------|
D|----------------------5----------|------------------|
A|---------------------------------|------------------|
E|---------------------------------|------------------|


e|-[15]b17r15b17---12-12h14-17---------|
B|------------------------------12h13--|
G|-------------------------------------|
D|-------------------------------------|
A|-------------------------------------|
E|-------------------------------------|


e|------------------------------------------------------------|
B|-6b8-8--6b8-8--6b8-8--6b8-8-6-8-------------5---------------|
G|--------------------------------7-9-7-5---5-7-5----7-7/9-9--|
D|----------------------------------------7--------7----------|
A|------------------------------------------------------------|
E|------------------------------------------------------------|


e|---------------------------------|
B|---------------------------------|
G|-5-5-5-----5-5-------------------|
D|-5-5-5--7--5-5--5/7-5------------|
A|----------------------7-5---5----|
E|--------------------------8---8--|


e|-------------------------------|
B|----------------5-7--7--5-5-5--|
G|-5\--7--5-5-----5-7--7--5-5-5--|
D|-5\--7--5-5--7--5-7--7--5-5-5--|
A|-------------7-----------------|
E|-------------------------------|


e|-8p5-8p5-8p5--12\-8p5-10p5-8p5-5h8-8p5--8p5-8p5--8p5-98p5--8-8--8p5-8p5-8p5--|
B|-----------------------------------------------------------------------------|
G|-----------------------------------------------------------------------------|
D|-----------------------------------------------------------------------------|
A|-----------------------------------------------------------------------------|
E|-----------------------------------------------------------------------------|

                                                 "...ooh..."
e|-5--5-5---5-5-5--5-5-5---5--5---5-5-5-5---5--5--------------5\--|
B|-5--5-5---5-5-5--5-5-5---7--5---5-5-5-5---7--5--------------5\--|
G|-5--5-5---5-5-5--5-5-5---7--5---5-5-5-5---7--5--------------5\--|
D|-7--7-7---7-7-7--7-7-7---7--7---7-7-7-7---7--7--------------7\--|
A|-7--7-7---7-7-7--7-7-7---5--7---7-7-7-7---5--7--------------7\--|
E|----------------------------------------------------------------|. . . END
            
Submit corrections

comments powered by Disqus
↑ Back to top | Santana Carlos Tabs for Oye Como Va. Lyrics for acoustic guitar and electric guitar. Tablatures and chords are parodies/interpretations of the original songs. You may use it for private study, scholarship, research or language learning purposes only